Artist: Owen, Title: An Island - CGCGCD

C
G
C
G
C
D

Owen - An Island

Tuning: CGCGCD from low to high (C Modal).
Capo: 3rd fret.

Note that when Mike Kinsella plays the song live, he tunes his guitar to C#G#C#G#C#D#
and places the capo on the 2nd fret. However, I recommend tuning a half-step down to
CGCGCD and placing the capo on the 3rd fret to avoid having to tune the 3rd string up
a half-step and the 2nd up a whole step.

I have tried to make the tab consistent with the timing of the song. The song is played
in 4/4. A space of two dashes (--) between notes indicates an eighth note. I left two
dashes at beginning and end of each bar to make the tab easier to read. You'll have to
listen to the song to get the timing exact, however.

Fret numbers are relative to the capo.

[Intro/Verse]

D|----------------------------|----------------------------|
C|-----------------0----------|----------------------------|
G|-----------0----------------|-----------0----------------|
C|-----0----------------------|-----0-----------0----------|
G|--------9-------------------|--------9-----------0-------|
C|--0-----------0-----0-------|--11----------11------------|

D|----------------------------|----------------------------|
C|-----------------0----------|----------------------------|
G|-----------0----------------|-----------0----------------|
C|-----0-----------------0----|-----0-----------0----------|
G|--------10------------------|--------9-----9-----0-------|
C|--9-----------9-----9-------|--7-------------------------|

D|----------------------------|----------------------------|
C|----------------------------|-----------------------4----|
G|-----------0----------------|-----------0----------(0)---|
C|-----0-----------0-----0----|-----0-----------0----------|
G|--------5-----------5-------|--------5-----------5-------|
C|-0h5----------5-------------|--5-----------5-------------|

D|----------------------------|----------------------------|
C|----------------------------|----------------------------|
G|-----------0----------------|-----------0----------------| [x6]
C|-----0-----------0-----0----|-----0-----------0-----0----| 
G|--------5-----------5-------|--------5-----------5-------|
C|--5-----------5-------------|--5-----------5-------------|

[Pre-chorus]

D|----------------------------|----------------------------|
C|-----------------0----------|----------------------------|
G|-----------0----------------|-----------0----------------|
C|-----0----------------------|-----0-----------0----------|
G|--------9-------------------|--------9-----------0-------|
C|--0-----------0-----0-------|--11----------11------------|

D|----------------------------|----------------------------|
C|-----------------0----------|----------------------------|
G|-----------0----------------|-----------0----------------|
C|-----0-----------------0----|-----0-----------0----------|
G|--------10------------------|--------9-----9-----0-------|
C|--9-----------9-----9-------|--7-------------------------|

D|----------------------------|----------------------------|
C|----------------------------|-----------------------4----|
G|-----------0----------------|-----------0----------------|
C|-----0-----------0-----0----|-----0-----------0----------|
G|--------5-----------5-------|--------5-----------5-------|
C|-0h5----------5-------------|--5-----------5-------------|

D|-----------0----------------|
C|-----------------------0----|
G|----------------------------|
C|-----0-----------0----------|
G|--------5-----------5-------|
C|--5-----------5-------------|

[Chorus]

D|--------------------0-------|-----3--------0-------------|
C|-----------------------4----|--------4--------0----------|
G|--------0--------0----------|-----------0-----------0----|
C|--4h-5-----0h-5-------------|--------------------4-------|
G|--2-------------------------|----------------------------|
C|----------------------------|--0-------------------------|

D|--------------------0-------|-----3--------0--------5----|
C|--------0----------0---4----|--------4--------0----------|
G|--------0---------0---------|-----------0--------4-------|
C|-----------------0----------|----------------------------|
G|----------------------------|----------------------------|
C|--5-------------------------|--0-------------------------|

D|--------------------5-------|-----3--------0-------------|
C|--------0----------0---4----|--------4--------0----------|
G|--------0---------0---------|-----------0-----------0----|
C|-----------------0----------|--------------------4-------|
G|----------------------------|----------------------------|
C|--5-------------------------|--0-------------------------|

D|--------------------0-------|--------3--------0----------|
C|--------0--------------4----|-----------4--------0-------|
G|--------0-------------------|--------------0-------------|
C|----------------------------|----------------------------|
G|--2-------------------------|----------------------------|
C|----------------------------|-----4----------------------|

D|--------------------0-------|
C|--------0-------------------|
G|--------0--------------9----|
C|----------------------------|
G|----------------------------|
C|--5-------------------------|

[Verse]

The chorus segues directly back into the intro/verse guitar part.
D|----------------------------|----------------------------|
C|-----------------0----------|----------------------------|
G|-----------0----------------|-----------0----------------|
C|-----0----------------------|-----0-----------0----------|
G|--------9-------------------|--------9-----------0-------|
C|--0-----------0-----0-------|--11----------11------------|

D|----------------------------|----------------------------|
C|-----------------0----------|----------------------------|
G|-----------0----------------|------------0---------------|
C|-----0-----------------0----|-----0---(0)-----0----------|
G|--------10------------------|--------9-----9-----0-------|
C|--9-----------9-----9-------|--7-------------------------|

D|----------------------------|----------------------------|
C|----------------------------|-----------------------4----|
G|-----------0----------------|-----------0----------------|
C|-----0-----------0-----0----|-----0-----------0----------|
G|--------5-----------5-------|--------5-----------5-------|
C|-0h5----------5-------------|--5-----------5-------------|

D|----------------------------|----------------------------|
C|----------------------------|----------------------------|
G|-----------0----------------|-----------0----------------| [x2]
C|-----0-----------0-----0----|-----0-----------0-----0----| 
G|--------5-----------5-------|--------5-----------5-------|
C|--5-----------5-------------|--5-----------5-------------|

[Bridge]

D|----------------------------|-----------------0----------|
C|-----------------0----------|----------------------------|
G|-----------0----------------|-----------0-----------9----|
C|-----0-----------------0----|-----0----------------------|
G|--------9-------------------|--------9-------------------|
C|--0-------------------------|--11------------------------|

D|----------------------------|----------------------------|
C|-----------------0----------|----------------------------|
G|-----------0----------------|-----------0----------------| [x4]
C|-----0-----------------0----|-----0-----------0----------|
G|--------9-------------------|--------10----10------------|
C|--0-------------------------|--10----------------10\9----|

D|----------------------------|-----------------0----------|
C|-----------------0----------|----------------------------|
G|-----------0----------------|-----------0-----------9----|
C|-----0-----------------0----|-----0----------------------|
G|--------9-------------------|--------9-------------------|
C|--0-------------------------|--11------------------------|

D|----------------------------|----------------------------|
C|-----------------0----------|-----------------------0----|
G|-----------0----------------|-----------0----------------|
C|-----0-----------------0----|-----0-----------0----------|
G|--------9-------------------|--------10----------10------|
C|--0-------------------------|--10----------10------------|

D|----------------------------|----------------------------|
C|----------------------------|----------------------------|
G|-----------0----------------|----------------------------|
C|-----0-----------0----------|----------------------------|
G|--------10------------------|----------------------------|
C|--9-----------9------9\-7---|--0-------------------------|

[Chorus]

D|--------------------0-------|-----3--------0-------------|
C|--------0--------------4----|--------4--------0----------|
G|--------0-------------------|-----------0-----------0----|
C|----------------------------|--------------------4-------|
G|----------------------------|----------------------------|
C|-/5-------------------------|--0-------------------------|

D|--------------------0-------|-----3--------0--------5----|
C|--------0----------0---4----|--------4--------0----------|
G|--------0---------0---------|-----------0--------4-------|
C|-----------------0----------|----------------------------|
G|----------------------------|----------------------------|
C|--5-------------------------|----------------------------|

D|--------------------5-------|-----3--------0-------------|
C|--------0----------0---4----|--------4--------0----------|
G|--------0---------0---------|-----------0-----------0----|
C|-----------------0----------|--------------------4-------|
G|----------------------------|----------------------------|
C|--5-------------------------|--0-------------------------|

D|--------------------0-------|-----3--------0-------------|
C|--------0--------------4----|--------4--------0----------|
G|--------0-------------------|-----------0-----------0----|
C|----------------------------|--------------------4-------|
G|--2-------------------------|----------------------------|
C|----------------------------|--4-------------------------|

D|--------------------0-------|-----3--------0-------------|
C|--------0--------------4----|--------4--------0----------|
G|--------0-------------------|-----------0-----------0----|
C|----------------------------|--------------------4-------|
G|----------------------------|----------------------------|
C|--5-------------------------|--0-------------------------|

D|--------------------0-------|-----3--------0--------5----|
C|--------0--------------4----|--------4--------0----------|
G|--------0-------------------|-----------0--------4-------|
C|----------------------------|----------------------------|
G|----------------------------|----------------------------|
C|--5-------------------------|--0-------------------------|

D|--------------------5-------|-----3--------0-------------|
C|--------0----------0---4----|--------4--------0----------|
G|--------0---------0---------|-----------0-----------0----|
C|-----------------0----------|--------------------4-------|
G|----------------------------|----------------------------|
C|--5-------------------------|--0-------------------------|

D|--------------------0-------|-----3--------0-------------|
C|--------0--------------4----|--------4--------0----------|
G|--------0-------------------|-----------0----------------|
C|----------------------------|----------------------------|
G|--2-------------------------|----------------------------|
C|----------------------------|--4-------------------------|

D|--------------------0-------|-----3--------0-------------|
C|--------0--------------4----|--------4--------0----------|
G|--------0-------------------|-----------0-----------0----|
C|----------------------------|--------------------4-------|
G|----------------------------|----------------------------|
C|--5-------------------------|--0-------------------------|

D|--------------------0-------|-----3--------0--------5----|
C|--------0----------0---4----|--------4--------0----------|
G|--------0---------0---------|-----------0--------4-------|
C|-----------------0----------|----------------------------|
G|----------------------------|----------------------------|
C|--5-------------------------|----------------------------|

D|--------------------5-------|-----3--------0-------------|
C|--------0----------0---4----|--------4--------0----------|
G|--------0---------0---------|-----------0-----------0----|
C|-----------------0----------|--------------------4-------|
G|----------------------------|----------------------------|
C|--5-------------------------|--0-------------------------|

D|--------------------0-------|-----3--------0-------------|
C|--------0--------------4----|--------4--------0----------|
G|--------0-------------------|-----------0----------------|
C|----------------------------|----------------------------|
G|--2-------------------------|----------------------------|
C|----------------------------|--4-------------------------|

D|--------------------0-------|
C|--------0-------------------|
G|--------0--------------9----|
C|----------------------------|
G|----------------------------|
C|--5-------------------------|

[Outro]

D|----------------------------|----------------------------|
C|-----------------0----------|----------------------------|
G|-----------0----------------|-----------0----------------|
C|-----0----------------------|-----0-----------0----------|
G|--------9-------------------|--------9-----------0-------|
C|--0-----------0-----0-------|--11----------11------------|

D|----------------------------|----------------------------|
C|-----------------0----------|----------------------------|
G|-----------0----------------|-----------0----------------|
C|-----0-----------------0----|-----0-----------0----------|
G|--------10------------------|--------9-----9-----0-------|
C|--9-----------9-----9-------|--7-------------------------|

D|----------------------------|----------------------------|
C|----------------------------|-----------------------4----|
G|-----------0----------------|-----------0----------------|
C|-----0-----------0-----0----|-----0-----------0----------|
G|--------5-----------5-------|--------5-----------5-------|
C|-0h5----------5-------------|--5-----------5-------------|

D|-----------0----------------|----------------------------|
C|----------------------------|--0-------------------------|
G|----------------------------|--0-------------------------|
C|-----0----------------------|----------------------------|
G|--------5-----5/-7p0--------|----------------------------|
C|--5-----------5/-7p0--------|----------------------------|