Artist: Nick Drake, Title: At the Chime of a City Clock - EbAbDbGbBbE

Card image

D#

Card image

G#

Card image

C#

Card image

F#

Card image

A#

Card image

E

Nick Drake - At the Chime of a City Clock

AT THE CHIME OF A CITY CLOCK
     
tuning BEBEBE capo 4ish
     
Main pattern (nb 1st 2 bars bit different in intro)
     
|--------|--------(0)---(0)|---(0)--|---(0)--|-(0)----|--------|--------| 
|----3---|--3-----|2-----2-|----2---|----1---|--1-----|0-----0-|----0---| 
|----3---|--3-----|2-----2-|----2---|----1---|--1-----|0-----0-|----0---| 
|----3---|--3-----|2-----2-|----2---|----1---|--1-----|0-----0-|----0---| 
|0-0---00|0---000-|--000---|000---00|0-0---00|0---000-|--000---|000---00| 
|--------|--------|--------|--------|--------|--------|--------|--------|
     r
     m      (suggestions for right hand)
 t t i ti t
     
"saddle up.."
     
|--------|--------|--------|--------|--------|--------|--------|--------| 
|----3---|--0-----|----0---|--0-----|----3---|--0-----|0-(0)-0-|--0-----| 
|----3---|--3-----|----0---|--0-----|----3---|--3-----|2-(2)-2-|----2-0-| 
|----3--3|--3--0--|----1---|-----1--|----3--3|--3--0--|2-(2)-0-|--------| 
|3-3-3---|3-3---0-|------3-|------0-|3-3-3---|3-3---0-|2-(2)-2-|--------| 
|--------|--------|1-1-1---|1---1---|--------|--------|------0-|--------|
     
(twice, then:)
     
|--------|--------|--------|--------| 
|----0---|--0-----|----0---|--0-----| 
|----0---|--0-----|----2---|--2-----| 
|----2--2|--2--2--|----0--0|--0--0--| 
|----2-2-|--2-2---|----2-2-|--2-2---| 
|2-2-----|2-----2-|0-0-----|0-----0-|
     
Chorus
     
|--------|--------|--------|--------|--------|--------|--------|--------| 
|----0---|--0-----|----0---|--0-----|----0---|--0-----|----0---|--0-----| 
|---(0)--|-(0)(0)-|---(0)--|-(0)(0)-|---(0)--|-(0)(0)-|----0---|--0--0--| 
|----4-4-|--4-4-4-|----3-3-|--3-3-3-|----2-2-|--2-2-2-|----0-0-|--0-0-0-| 
|0-0-----|0-------|0-0-----|0-------|0-0-----|0-------|0-0-----|0-------| 
|--------|--------|--------|--------|--------|--------|--------|--------|
     
(The bracketed notes only occur occasionally. This can sound 
a bit thin unaccompanied, so one alternative is to play the 
(0)'s as 4's.)
     
Link to v2 is just the "saddle up" section
     
Link into v3:
     
|--------|--------|--------|--------|--------|--------|--------|--------| 
|----0---|--0-----|----0---|--0-----|0-----0-|----0---|----0---|--0-----| 
|----3---|--3-----|----0---|--0-----|0-----0-|----0---|----0---|--0-----| 
|----3--3|--3--0--|----1--1|--1--1--|3--3--1-|-1----1-|0-------|-----0--| 
|3-3-3-3-|3-3-3-0-|----3-3-|--3-3---|5-5---3-|3---3---|--0---00|0---0-0-| 
|--------|--------|1-1-----|1-----1-|3---3-1-|--1-----|--------|--------|
                                    (*)
(twice: second time do 6 bars then go into intro/verse pattern) 
(again, if unaccompanied, the chord at * might sound better as
 3x320, as it includes a note that is otherwise only in the 
 string section)
     
End of last chorus:
                             |--------|--------|
"who leaves his armour..."   |----0---|--0-----| ..."down"
                             |----0---|--0-----|
                             |----1-1-|--1-1-1-|
                             |0-0-----|0-------|
                             |--------|--------|
     
Tabbed by Chris Healey