Artist: Nick Drake, Title: Black Mountain - EADGBE

E
A
D
G
B
E

Nick Drake - Black Mountain

Nick Drake - Black Mountain Blues - Family Tree
Standard Tuning - Capo On 2
Tabbed by Dan Benton-Smith 17/3/08
This is one of my favourite tunes ever. Only the intro at the moment but the rest is 
Please post comments/corrections.


-----------------------------------0--------------0-----3b-------------|
-------------0-----2-----------------3b---2-1---2-----------3b--3b-2---|
-----0h1p0-2-------2---0h1---0h1p0--------2-1---2----------------------|
---2-----------------2-----2-------------------------------------------|
----------------------------------------0-----0-----0-0---0---0----0-0-|
-0-----0-----0-3-0-----0-----0-----0-----------------------------------|


---------------------------------------------------0-3b--0-----------|
-------------------------------0-----------------2-------0-----------|
-----2-0h1p0-2-4-3--2----3-2---------3-2---------2-------------------|
-----2-2-----2-3-3--2----2-1---------2-1---0-------------0-----------|
---------------------------------------------0-0-0-0---0-------------|
-0-0-0-0-----0-0--0--0-3-----2---2-3-----2---------------------------|


----------------------------------------------------|
-------------------------------0--------------------|
-------4-----3-------1---3-2------------------------|
-------------------------2-1-------2----------------|
-----5---5-4---4-3-3-2-------------0----------------|
-0-0-------------------0-----2---2-0----------------|