Artist: John Martyn, Title: Bless The Weather - DADGAD

Card image

D

Card image

A

Card image

D

Card image

G

Card image

A

Card image

D

John Martyn - Bless The Weather

-----------------------------------------------------------------
                Bless the Weather - John Martyn
-----------------------------------------------------------------

Tabbed By : Aeonoptic
e-mail: aeonoptic@gmail.com

Tuning: DADGAD (album is +75 cents sharp)

x denotes a thumb slap

Chords just alternate between Dm7 and Gm7 every bar

 Intro
D|----------------------------|0------------0--------------|--0--------------------------|
A|----------------------------|----------------------------|--------------0--------------|
G|--0h2p0------0--0-2---------|0h2p0------2---0h2p0--------|--0h2p0-----0---0h2p0--------|
D|--3-----3----3--3-3-3-------|------3----3---3-----3------|--------3-------------3-----0|
A|----------------------------|----------------------------|--------------------------3--|
D|0---------x--0--0-0-0-x--0-3|--------x--------------x-5-3|0---------x-------------x---0|

D|0---------0----0----------|
A|--------------------------|
G|0h2p0-----0h2--0h2p0------|
D|------3--------------3----|
A|--------------------------|
D|---x----x--------------x-0|

Time after time, I held it just to watch it die
Line after line, I loved it just to watch it cry

D|----------0---0----------|---------0---0---0------|---------0---0-0------|
A|-------------------------|---------------------0--|0---------------------|
G|0-------0-------0--------|0------0-0---0-2-0------|0------0-----0-0------|
D|----3-------------0------|---------------3-------0|-------3--------------|
A|----------------------0--|------------------------|-------------------0--|
D|--x---x-----x-------x---0|--x--x-----x-------x----|--x--x-----x-----x---0|
 
Bless the weather that brought you to me
Curse the storm that takes you away

D|-------------0--------|0--------0---------------|0------------------|
A|-----------0----------|5------------------------|-------1-----------|
G|0-----0---------------|------------0------------|0------0----0------|
D|------0---------------|-------------------------|------------3------|
A|-----------------0----|-------------------------|-------------------|
D|---x-----0-----x---0-x|--x--x-0------x-5b6-5b6-5|--x--x----x---x-5-0|

Bless the weather that brought you to me
Curse the storm that takes you home

D|0----------0----------|0------0-0-------0------|
A|----------------------|1------1----------------|
G|0--------0------------|0--------------3--------|
D|3---------------------|------------------------|
A|----------------------|---------------------0--|
D|---x--x--x---x--x--0-5|----x------x-x-----x---0|

Wave after wave, I washed it just to watch it turn
Day after day, I cooled it just to watch it burn

D|0-------0-----------|0------0-0-----------|0-------0-------------|---------0-------------|
A|0-----0-------------|1------1-----0-------|0---------------------|1------1----1----------|
G|0-----2-------------|---------------------|0--------------0------|0------0------0--------|
D|--------------------|---------------3-----|3------------5--------|----------------3------|
A|--------------------|---------------------|----------------------|--------------------0--|
D|----x-----x---x--0-5|--x--x-----x-----x--0|x--x--x---x--5---x-0-5|--x--x--------x---x---0|

Bless the weather that brought you to me
Curse the storm that takes you home
Bless the weather that brought you to me
Curse the storm that takes you away

D|---------0-----------|0--------0--------------|----------0----------|0----0-0--------------|
A|---------------------|1-----------------------|0-------0------------|1----1-----------0----|
G|0------0-------------|0------0-------0--------|0-------------------0|0----0-----0----------|
D|3------3-------------|-----------------3------|3-------3---------0--|-------------3-3------|
A|---------------------|------------------------|---------------------|----------------------|
D|--x--x-----x-x-x--3-0|----x------5-0-----x-5-0|---x--x-----x---x----|---------x---------5-0|

Pain after pain, I stood it just to see how it feels
Rain after rain, I stood it just to make it real

D|0--------0--------------|0-------0--------0----|0-----------0-0-----0-----|0--------0------------|
A|0------0----------------|1-------1------1------|0-----------0-----0-------|1------1--------------|
G|0------------0----------|0-------0-------------|0-0h2p0-----0-------------|0------0---0-3-5------|
D|3--------------------0--|----------------------|3-------3-----------------|----------------------|
A|------------------------|-------------------0--|--------------------------|-------------------0--|
D|--x--x-----x---x--x----0|----x-0----x-0-------0|----------x-----x-----x--0|--x--x-----------x---0|

Bless the weather that brought you to me
Curse the day you go away
Bless the weather that brought you to me
Curse the storm that takes you away

D|0-------0---------|0-----------0---------0------|0----------0-------------|0--------0--------------|
A|0-----0-----------|1----1----1---------1--------|0--------0---------------|1------1----------------|
G|2-----2-----------|0----0----0---------0--------|2--------2-------0-------|0----------------0------|
D|3-----3-----------|--------------------3--------|3----3---3-----3-------0-|-------------3----------|
A|---------------0--|--------------------------0--|---------------------0---|---------------------0--|
D|----x-----x--x---5|---x----x------x--0-----x---0|---0---x-----x-----x----0|--x--x-----x---x---x---0|

Time after time, I held it just to watch it die
Line after line, I loved it just to watch it cry

D|0-------------0--------------|0--------0-----------|0---------0--------------|0--------0--------------|
A|------------0-----0----------|1------1-------------|0-------0----------------|1------1----------------|
G|0-h2p0------2-------0--------|0------0------0------|2-------2----------------|0------0-----0---0------|
D|-------3--------------3---0--|---------------------|3-------3---------3---0--|---------------3--------|
A|-----------------------------|------------------0--|------------5------------|------------------------|
D|---------x------x-------x---5|--x--x-----x----x---0|---x--x-------0-----x---0|---x--x----x-------x-5-0|
  
Bless the weather that brought you to me
Curse the storm that takes you away
Bless the weather that brought you to me
Curse the storm that takes you away

D|----------0-------------|0--------0----------|---------0---------|0------------0------------|
A|0-------0---------------|1------1------------|0------0-----------|1------1---1--------------|
G|2-------2---------------|0------0-----0------|2------2----0------|0----0-----0-----0--------|
D|3-------3--------3---0--|---------------3----|3------3--------0--|---3---------------3---0--|
A|------------------------|-----------------0--|-------------------|--------------------------|
D|---x--x-----x--0---x---0|--x--x-----x---x---0|--x--x--------x---0|---------x-----x-----x---0|

D|------------0--------------|0--------0--0------------|------------0--------------|
A|---------------------------|1------1-----------------|---------------------------|
G|0h2p0-----0---0h2p0--------|0------0----0h2p0--------|0h2p0-----2---0h2p0--------|
D|3-----3-------------3------|------------------3------|3-----3---3---3-----3------|
A|------------------------0--|----------------------0--|------------------------0--|
D|--------x-------x-----x---0|--x--x--------------x---0|--------x-------------x---0|

D|0--------0-0-------------|0h3-3-5-10-7~----------------|--0---0---0--0---0---0---0------------|
A|1------1---1-------------|-----------------------------|--1---1---1--1---1---1---1------------|
G|0------0---0--0-0--------|-----------------------------|--0-0---0-0--0---0---0---0------------|
D|--------------------0---0|0h3-3-5-10-7~--7----5h7p5---5|3--------------3---3---3---3---0------|
A|-------------------------|------------------8-------8--|-----------------------------3---0----|
D|--x-0-------------x---0--|-----------------------------|-----------------------------------0-0|

D|0h3-3-5-10-7~--7-------------|--0-0---0-0--0---0---0---0------------|
A|-----------------------------|--1---1---1--1---1---1---1------------|
G|-----------------------------|--0-0---0-0--0---0---0---0------------|
D|0h3-3-5-10-7~--7----5h7p5---5|3--------------3---3---3---3---0------|
A|------------------8-------8--|-----------------------------3---0----|
D|-----------------------------|-----------------------------------0-0|

D|0h3-3-5-10-7~--7-------------|--0-0---0-0--0---0---0---0------------|
A|-----------------------------|--1---1---1--1---1---1---1------------|
G|-----------------------------|--0-0---0-0--0---0---0---0------------|
D|0h3-3-5-10-7~--7----5h7p5---5|3--------------3---3---3---3---0------|
A|------------------8-------8--|-----------------------------3---0----|
D|-----------------------------|-----------------------------------0-0|

The song fades with him basically playing this repeatedly with some slapping and variation

D|0h2p0h2p0h2p0h2p0h2p0--------|
A|-----------------------------|
G|0---------------------0h2----|
D|--------------------------3--|
A|-----------------------------|
D|----------------------------0|


| /  slide up
| \  slide down
| h  hammer-on
| p  pull-off
| ~  vibrato
| +  harmonic
| x  Mute note