Artist: Ben Howard, Title: Bones - CGCGGC

C
G
C
G
G
C

Ben Howard - Bones

Tuning: CGCGGC
Capo 5th fret, leave the 6E (lowest) string uncapped

All fret numbers are relative to the capo, except the low E string

Intro:
C-------------------------------------------------------------------------|
G-------------------------------------------------------------------------|
G-------------------4---2-------------------------------------------------|
C----0---0--2p0-----0---0-------------------------------------------------|
G----2h4-4--0---4p0-4---2-------------------------------------------------|
C----0---0--0---0---9---7-------------------------------------------------|


C-------------------------------------------------------------------------|
G---------------------------------------------0---------------------------|
G---------------------------------4---2-------0---------------------------|
C----0---0--2h4p2p0-----0-0-------0---0-------0---------------------------|
G----2h4-4--0-------4p2-2-2h4p2p0-4---2-------0---------------------------|
C----0---0--0---------0-0-0-------9---7-------5---------------------------|


Verse:
C-------------------------------------------------------------------------|
G-------------------0---0-------------------------------------------------|
G-------------------4---2-------------------------------------------------|
C----0---0--2p0-----0---0-------------------------------------------------|
G----2h4-4--0---4p0-4---2-------------------------------------------------|
C----0---0--0---0---9---7-------------------------------------------------|
                            x2

G-------------------------------------------------------------------------|
C---------------------------------0---0-----------------------------------|
G---------------------------------4---2-----------------------------------|
C----0---0--2h4p2p0-----0-0-------0---0-----------------------------------|
G----2h4-4--0-------4p2-2-2h4p2p0-4---2-----------------------------------|
C----0---0--0---------0-0-0-------9---7-----------------------------------|


The chords for the Chorus:
C---(0)--------(0)--(0)---------------------------------------------------|
G----0----------0----0----------------------------------------------------|
G----0----------7----7----------------------------------------------------|
C----0----------0----0----------------------------------------------------|
G----0----------7----7----------------------------------------------------|
C----5---------12---11----------------------------------------------------|