Artist: Led Zeppelin, Title: Bron Yr Aur - cacgce

C
A
C
G
C
E

Led Zeppelin - Bron Yr Aur

Title: Bron-Yr-Aur	
Artist: Led Zeppelin
Composer: Jimmy Page
Tabber: Cube-Zero (cube-zero@kqlqsh.com)
Tuning low-to-high: C A C G C E
Comment: a "superbe" accoustic of Led Zep (again) w/ a great tuning that allows some nice melodies.

Intro:

Riff #1
|-------------------|-------------------|
|---------0-------0-|---------0-------0-|
|-------0-------0---|-------0-------0---|
|-----0-------0-----|-----0-------0-----|
|-2/3---------------|-2/3---------------|
|-----------0-------|-----------0-------|

Riff #2
|---------0---------|---------0---------|
|-----------------0-|-----------------0-|
|-------0-------0---|-------0-------0---|
|-----0-------0-----|-----0-------0-----|
|-2/3---------------|-2/3---------------|
|-----------0-------|-----------0-------|
(the 2/3 slide can be played like this 0h2/3)



Main part:
  
Riff #1
|-------3p0-------|-----------------|-------0---------|-----------------|
|-2-------------0-|---------0-------|-5-------------0-|---------0-------|
|---0---------0---|-------0-------0-|---4---------4---|-------0-------0-|
|-----2-----2-----|-----0-------0---|-----0-----0-----|-----0-------0---|
|-2-------2-------|--3--------------|-5-------5-------|--3--------------|
|-----------------|-----------0-----|-----------------|-----------0-----|

Riff #2
|---------------0-|---------------|
|-------0---------|-------0-------|
|-0-----------0---|-----0-------0-|
|---0-------0-----|---0-------0---|
|-----0---0-------|-0-------3-----|
|-5---------------|---------------|

Riff #3
|--------------------|------------------|
|----------0-------2-|-------4-------0--|
|--------0-------0---|-----4-------0----|
|------0-------2-----|---4-------4------|
|--2/3-------2-------|-0-------0--------|
|--------------------|------------------|
(here at the end of the 2nd chord, you can add a 2/4 slide on the high C string)

Riff #4
|---------------------|-----------------|
|-------4h5p4-----5---|-------4-------5-|
|-----4---------4-----|-----4-------4---|
|---4---------4-------|---4-------4-----|
|-0---------0---------|-0-------0-------|
|---------------------|-----------------|

Riff #5
|-------------------|-------------------|
|---------4-------4-|-------5/7------0--|
|-------4-------4---|-----5--------7----|
|-----4-------4-----|---5--------7------|
|--0--------0-------|-------------------|
|-------------------|/5-----5/7---------|


Ending:


|---------------------|---------------0-|
|---------4-------5---|-------0-----0---|
|-------4-------4-----|-----0-----5-----|
|-----4-------4-------|---5-----5-------|
|--0--------0---------|-7---------------|
|---------------------|-----------------|


|---------0-------0-|---------0-------0-|-------0-------0-|-0----|
|-------5-------5---|-------5-------5---|-----5-------5---|-0----|
|-----7-------7-----|-----7-------7-----|---7-------7-----|-0----|
|--0--------0-------|--0--------7-------|-0-------7-------|-0----|
|-------------------|-------------------|-----------------|-3----|
|-------------------|-------------------|-----------------|-0----|
(the last chord is played aperggio style with high reverb)