Artist: The Story So Far, Title: Clairvoyant - C#G#D#G#CD#

C#
G#
D#
G#
C
D#

The Story So Far - Clairvoyant

[Intro/Verses]

D#|-------------------------|-----------------------|-----------------------|-----------------------|
C |--12-----------10--------|--8-----------5--------|--3-----------0--------|-----------------------|
G#|---------0------------0--|--------0-----------0--|--------0-----------0--|--2-----2-----2--0-----|
D#|------0------------0-----|-----0-----------0-----|-----0-----------0-----|-----0--0-----0-----0--|
G#|-------------------------|-----------------------|-----------------------|-----------------------|
C#|--0---------0------------|--0--------0-----------|--0--------0-----------|--0--------0-----------|

D#|-------------------------|-----------------------|-------------------------|-----------------------|
C |--12-----------10--------|--8-----------0--------|--0h3-----------0--------|--3-----------3--------|
G#|---------0------------0--|--------0-----------0--|----------0-----------0--|--------0-----------0--|
D#|------0------------0-----|-----0-----------0-----|-------0-----------0-----|-----0-----------0-----|
G#|--0---------0------------|--0--------0-----------|--0----------0-----------|--0--------0-----------|
C#|-------------------------|-----------------------|-------------------------|-----------------------|

D#|-------------------------|-----------------------|-----------------------|-----------------------|
C |--12-----------10--------|--8-----------5--------|--3-----------0--------|-----------------------|
G#|---------0------------0--|--------0-----------0--|--------0-----------0--|--2-----------2--0-----|
D#|------0------------0-----|-----0-----------0-----|-----0-----------0-----|-----0--0-----0-----0--|
G#|-------------------------|-----------------------|-----------------------|-----------------------|
C#|--0---------0------------|--0--------0-----------|--0--------0-----------|--0--------0-----------|


D#|-------------------------|-----------------------|-------------------------|-----------------------|
C |--12-----------10--------|--8-----------0--------|--0h3-----------0--------|--3-----------3--------|
G#|---------0------------0--|--------0-----------0--|----------0-----------0--|--------0-----------0--|
D#|------0------------0-----|-----0-----------0-----|-------0-----------0-----|-----0-----------0-----|
G#|--0---------0------------|--0--------0-----------|--0----------0-----------|--0--------0-----------|
C#|-------------------------|-----------------------|-------------------------|-----------------------|

[Chorus]
|--0--------------------|-----------------------|-----------------------|-----------------------|
|--------------5--------|--0-----------0--------|--1-----------3--------|--0-----------0--------|
|--------0-----------0--|--------0-----------0--|--------0-----------0--|--------0-----------0--|
|-----0-----------0-----|-----0-----------0-----|-----0-----------0-----|-----0-----------0-----|
|-----------------------|-----------------------|-----------------------|--0--------0-----------|
|--4--------4-----------|--2--------2-----------|--0--------0-----------|-----------------------|

|--0--------------------|-----------------------|-----------------------|-----------------------|
|--------------5--------|--0-----------0--------|--1-----------3--1--0--|-----------------------|
|--------0-----------0--|--------0-----------0--|--------0-----------0--|--0-----0--0h2--4p0----|
|-----0-----------0-----|-----0-----------0-----|-----0-----------0-----|-----0-----------------|
|-----------------------|-----------------------|-----------------------|--0--------0-----------|
|--4--------4-----------|--2--------2-----------|--0--------0-----------|-----------------------|

|--0--------------------|-----------------------|-----------------------|-----------------------|
|--------------5--------|--0-----------0--------|--1-----------3--------|--0-----------0--------|
|--------0-----------0--|--------0-----------0--|--------0-----------0--|--------0-----------0--|
|-----0-----------0-----|-----0-----------0-----|-----0-----------0-----|-----0-----------0-----|
|-----------------------|-----------------------|-----------------------|--0--------0-----------|
|--4--------4-----------|--2--------2-----------|--0--------0-----------|-----------------------|

|--0--------------------|-----------------------|-----------------------|-----------------------|
|--------------5--------|--0-----------0--------|--1-----------3--------|-----------------------|
|--------0-----------0--|--------0-----------0--|--------0-----------0--|--0-----0--0--2--0--0--|
|-----0-----------0-----|-----0-----------0-----|-----0-----------0-----|-----0-----------------|
|-----------------------|-----------------------|-----------------------|--0--------0-----------|
|--4--------4-----------|--2--------2-----------|--0--------0-----------|-----------------------|

|-----------------------|-----------------------|-----------------------|--<12>----------------|
|--------------0--------|--------------0--------|--------------0--------|--------<12>----------|
|--------0-----------0--|--------0-----------0--|--------0-----------0--|--------------<12>----|
|-----0-----------0-----|-----0-----------0-----|-----0-----------0-----|----------------------|
|-----------------------|-----------------------|-----------------------|----------------------|
|--0--------0-----------|--0--------0-----------|--0--------0-----------|----------------------|

[Outro] after harmonics
Slow down towards end.. yes I know.. you should probably tune the top string higher if
you can so that you can actually play it. The harmonics sound perfect with this tuning though.

|-------------------------|----------------------------|--7-----------9--------|--7------------------|
|--12-----------10--------|--12h13-----------12--------|-----------------------|---------------------|
|---------0------------0--|------------0------------0--|--------0-----------0--|--------0-----7-----0|
|------0------------0-----|---------0------------0-----|--3--0-----3-----0-----|--3--0-----3-----0---|
|-------------------------|----------------------------|-----------------------|---------------------|
|--0---------0------------|--0------------0------------|-----------------------|---------------------|

|--5-----------5--------|--5-----------5--------|--5-----------5--------|--5-----------5--------|
|-----------------------|-----------------------|-----------------------|-----------------------|
|--------0-----------0--|--------0-----------0--|--------0-----------0--|--------0-----------0--|
|--2--0-----2-----0-----|--2--0-----2-----0-----|--1--0-----1-----0-----|--1--0-----1-----0-----|
|-----------------------|-----------------------|-----------------------|-----------------------|
|-----------------------|-----------------------|-----------------------|-----------------------|

|--------5-----|-----|
|--1--3-----0--|-----|
|--------------|-----|
|--------------|-----|
|--------------|--0--|
|--------------|--0--|

ORDER:
Intro
Verse
Chorus
Intro
Verse
Chorus
Outro

SOURCE: http://tabs.ultimate-guitar.com/t/the_story_so_far/clairvoyant_tab.htm