Artist: Nick Drake, Title: Clothes of Sand - EADGAE

E
A
D
G
A
E

Nick Drake - Clothes of Sand

CLOTHES OF SAND
     
Tuning: EADGAE
Capo 1st fret
     
     
Intro
     
|------0-----|------3-----|
|---0---0----|---0--------|
|--2-2---2---|--0-0-------| (x2)
|-2---2---2--|-0---0------|
|0-----0---0-|------2-----|
|-----------0|3---------3-|
     
     
Verse:
     
|------0-----|------------|------0-----|------0-----| 
|---0---0----|---0-----0--|---0---0----|---0---0----| 
|--2-2---2---|--0-0---2-2-|--0-0---0---|--1-1---1---| 
|-2---2---2--|-0---0-2----|-3---3---3--|-2---2---2--| 
|0-----0---0-|------0-----|------3---3-|------2---2-| 
|-----------0|3----------0|1----------1|0----------0|
     
|------0-----|------------|------------|------0-----| 
|---0---0----|---0-----0--|---0-----0--|---0---0----| 
|--2-2---2---|--0-0---2-2-|--0-0---1-1-|--2-2---2---| 
|-2---2---2--|-0---0-2----|-3---3-2---2|-2---2---2--| 
|0-----0---0-|------0-----|------------|0-----0---0-| 
|-----------0|3----------0|1-----0-----|-----------0|
     
     
Chorus ("Clothes of sand have covered....")
     
|------------|------0-----|------0-----|------0-----| 
|---0-----0--|---2---2----|---0---0----|---0---0----| 
|--0-0---0-0-|--2-2---2---|--0-0---0---|--1-1---1---| 
|-3---3-0---0|-2---2---2--|-3---3---3--|-2---2---2--| 
|------------|0-----0---0-|------3---3-|------2---2-| 
|1-----3-----|-----------0|1----------1|0----------0|
     
|------------|------------|------------|------0-----| 
|---0-----0--|---0-----0--|---0-----0--|---0---0----| 
|--0-0---0-0-|--2-----2-2-|--0-0---1-1-|--2-2---2---| 
|-3---3-0---0|-2---2-0---0|-3---3-2---2|-2---2---2--| 
|------------|0-----------|------------|0-----0---0-| 
|1-----3-----|----3-2-----|1-----0-----|-----------0|
                   *
Link to next verse:
     
|------3-----|------0-----|
|---0---0----|---0---0----|
|--0-0---0---|--2-2---2---|
|-0---0---0--|-2---2---2--|
|------2---2-|0-----0---0-|
|3----------3|-----------0|
     
(Next verse is a double length verse)
     
Final chorus is same as first chorus up to "down to 
the sea" (* above) where you get:
     
|------0-----|------------|------0-----|---3--------| 
|---0---0----|---0-----0--|---0---0----|----0-------| 
|--2-2---2---|--0-0---1-1-|--2-2---2---|--0--0--2---| 
|-0---0---0--|-3---3-2---2|-2---2---2--|-0-----2----| 
|------0---0-|------------|0-----0---0-|------0-----| 
|2----------0|1-----0-----|------------|3-----------|
     
     
Tabbed by Chris Healey