Artist: Imagine Dragons, Title: Demons - CGCFBC

Card image

C

Card image

G

Card image

C

Card image

F

Card image

B

Card image

C

Imagine Dragons - Demons

This tab is for the cover version of the above by Boyce Avenue. A video of this can be seen on YouTube using watch?v=9DLtzc9KLiw (Not sure if I can post links to external sites)

Verse 1:

c|--------------------------------------------------------------------|
B|-1---------------3---------------5---------------6---------------|
F|-2---------------2---------------4---------------4---------------| x2
C|-0----------------------------------------------------------------|
G|-----------------0---------------2-------------------------------|
C|--------------------------------------------------5---------------|


Pre-chorus 1:

c|---0--------------------0-----------0-------------------0---------|
B|-----0---------------0-----0---------0---------------0-----0----|
F|-------2-----------2---------2---------4-----------4-------------|
C|-0-----------------------------------------------------------7----|
G|-----------------0---------------2--------------------------------|
C|-------------------------------------------------5-----------------|

c|---0-------------------0-----------0-------------------0----------|
B|-----0---------------0-----0---------0---------------0-----------|
F|-------2-----------2---------2---------4-----------4-------------|
C|-0-----------------------------------------------------------------|
G|-----------------0---------------2--------------------------------|
C|-------------------------------------------------5----------------|


Chorus:

   v               v               v               v    
c|-0---------------0---------------0---------------0---------------|
B|-1---------------3---------------5---------------6---------------|
F|-2---------------2---------------4---------------4---------------| x2
C|-0---------------2---------------x---------------0---------------|
G|-----------------0---------------2---------------x---------------|
C|-------------------------------------------------5----------------|


Verse 2:

c|-----------------------------------------------------------0-------|
B|-1---------------3---------------5---------------6-----------0---|
F|-2---------------2---------------4---------------4---------------|
C|-0----------------------------------------------------------------|
G|-----------------0---------------2-------------------------------|
C|-------------------------------------------------5----------------|

c|--------------------------------------------------------------------|
B|-1---------------3---------------5---------------6---------------|
F|-2---------------2---------------4---------------4---------------|
C|-0-----------------------------------------------------------------|
G|-----------------0---------------2--------------------------------|
C|-------------------------------------------------5-----------------|


Pre-chorus 2:

c|---0-------------------0-----------0-------------------0----------|
B|-----0---------------0-----0---------0---------------0-----0-----|
F|-------2-----------2---------2---------4-----------4-------------|
C|-0---0---0---0-----------------------------------------------7---|
G|-----------------0---0---0---0---2---2---2---2-----------------|
C|--------------------------------------------------5---5---5---5---|

c|---0-------------------0-----------0-------------------0---------|
B|-----0---------------0---------------0---------------0-----------|
F|-------2-----------2-------------------4-----------4-------------|
C|-0---0---0---0---------------------------------------------------|
G|-----------------0---0---0---0---2---2---2---2----------------|
C|-------------------------------------------------5---5---5-------|


Chorus(downstrokes):

c|-0-----0-----0---0-----0-----0---0-----0-----0---0-----0-----0---------------|
B|-5-----5-----5---0-----0-----0---5-----5-----5---6-----6-----6---|
F|-7-----7-----7---9-9-9-9-9-9-9-9-4-4-4-4-4-4-4-4-4-----4-----4---|
C|-0-0-0-0-0-0-0-0-7-7-7-7-7-7-7-7-x-x-x-x-x-x-x-x-0-0-0-0-0-0-0-0-|
G|-x-x-x-x-x-x-x-x-0-0-0-0-0-0-0-0-2-2-2-2-2-2-2-2-x-x-x-x-x-x-x-x-|
C|-0-0-0-0-0-0-0-0---------------------------------5-5-5-5-5-5-5-5-|

c|-0-----0-----0---0-----0-----0---0-----0-----0---0---------------|
B|-5-----5-----5---0-----0-----0---5-----5-----5---6---------------|
F|-7-----7-----7---9-9-9-9-9-9-9-9-4-4-4-4-4-4-4-4-4---------------|
C|-0-0-0-0-0-0-0-0-7-7-7-7-7-7-7-7-x-x-x-x-x-x-x-x-0---------------|
G|-x-x-x-x-x-x-x-x-0-0-0-0-0-0-0-0-2-2-2-2-2-2-2-2-x---------------|
C|-0-0-0-0-0-0-0-0---------------------------------5---------------|


Bridge:

c|-7-----7-----7---7-----7-----7---9-----9-----9---5-----5-----5---|
B|---0-----0---------0-----0---------0-----0---------5-----5-------|
F|-----7-----7---7-----7-----7---7-----7-----7---7-----7-----7---7-|
C|-0---------------------------------------------------------------|
G|-----------------0-----------------------------------------------|
C|---------------------------------9---------------5---------------|

c|-7-----7-----7---7-----7-----7---9-----9-----9---5-----5---------|
B|---0-----0---------0-----0---------0-----0---------5-------------|
F|-----7-----7---7-----7-----7---7-----7-----7---7-----7-----------|
C|-0-----0---------------------------------------------------------|
G|-----------------0-----0-----------------------------------------|
C|---------------------------------9-----9---------5-----5---------|


Chorus:

c|-0-----0-----0---0-----0-----0---0-----0-----0---0-----0-----0---|
B|-5-----5-----5---0-----0-----0---5-----5-----5---6-----6-----6---|
F|-7-----7-----7---9-9-9-9-9-9-9-9-4-4-4-4-4-4-4-4-4-----4-----4---|
C|-0-0-0-0-0-0-0-0-7-7-7-7-7-7-7-7-x-x-x-x-x-x-x-x-0-0-0-0-0-0-0-0-|
G|-x-x-x-x-x-x-x-x-0-0-0-0-0-0-0-0-2-2-2-2-2-2-2-2-x-x-x-x-x-x-x-x-|
C|-0-0-0-0-0-0-0-0---------------------------------5-5-5-5-5-5-5-5-|

c|-0-----0-----0---0-----0-----0---0-----0-----0---0-----0-----0-0-|
B|-5-----5-----5---0-----0-----0---5-----5-----5---6-----6-----6-6-|
F|-7-----7-----7---9-9-9-9-9-9-9-9-4-4-4-4-4-4-4-4-4-----4-----4-4-|
C|-0-0-0-0-0-0-0-0-7-7-7-7-7-7-7-7-x-x-x-x-x-x-x-x-0-0-0-0-0-0-0-0-|
G|-x-x-x-x-x-x-x-x-0-0-0-0-0-0-0-0-2-2-2-2-2-2-2-2-x-x-x-x-x-x-x-x-|
C|-0-0-0-0-0-0-0-0---------------------------------5-5-5-5-5-5-5-5-|

************************************
| x   Palm Mute
| v   Downstroke
************************************


Verse 1:
When the days are cold
And the cards all fold
And the saints we see
Are all made of gold

When your dreams all fail
And the ones we hail
Are the worst of all
And the blood's run stale


Pre-chorus 1:
I wanna hide the truth
I wanna shelter you
But with the beast inside
There's nowhere we can hide

No matter what we breed
We still are made of greed
This is my kingdom come
This is my kingdom come


Chorus:
When you feel my heat
Look into my eyes
It's where my demons hide
It's where my demons hide

Don't get too close
It's dark inside
It's where my demons hide
It's where my demons hide


Verse 2:
At the curtain's call
It's the last of all
When the lights fade out
All the sinners crawl

So they dug your grave
And the masquerade
Will come calling out
At the mess you made


Pre-chorus 2:
Don't wanna let you down
But I am hell bound
Though this is all for you
Don't wanna hide the truth

No matter what we breed
We still are made of greed
This is my kingdom come
This is my kingdom come


Chorus:
When you feel my heat
Look into my eyes
It's where my demons hide
It's where my demons hide

Don't get too close
It's dark inside
It's where my demons hide
It's where my demons hide


Bridge:
They say it's what you make
I say it's up to fate
It's woven in my soul
I need to let you go

Your eyes, they shine so bright
I wanna save that light
I can't escape this now
Unless you show me how


Chorus:
When you feel my heat
Look into my eyes
It's where my demons hide
It's where my demons hide

Don't get too close
It's dark inside
It's where my demons hide
It's where my demons hide