Artist: Nick Drake, Title: Fly - DADGBD

Card image

D

Card image

A

Card image

D

Card image

G

Card image

B

Card image

D

Nick Drake - Fly

FLY
     
Tuning BEBEBE capo 4th fret
     
     
Main pattern for intro and 1st half of verse:
                     #
--|0-0-0---|--------|--------|--------| 
--|-0-0--0-|0-0-----|--4---4-|--4---4-| (- the 4's on this string 
--|4-2-00-0|-0--0-0-|2---2---|2---2---|  are 0's in the intro) 
0-|------4-|2-00-0-0|-0-0-0-0|-0-0-0-0| 
--|--------|----5-4-|--2---2-|--2---2-| 
--|--------|--------|0---0---|0---0---|
   *     *      *
     
(* - sometimes you slide up to these notes from the fret below)
(# - hammer on the 2 (on both strings) here in the intro)
     
Variation for the last two bars of the above:
     
|------0-|--------|
|--4-----|4---4---|
|2---2---|--2---2-| (only the top 3 strings are different) 
|-0-0-0-0|-0-0-0-0|
|--2---2-|--2---2-|
|0---0---|0---0---|
     
     
Second half of verse
     
|--0---0-|--0---0-|       |--0-----| 
|5---5---|4---4---|       |4---4---| 
|-0-0-0-0|-0-0-0-0| (x3)  |------2-| (x4) 
|--0---0-|--0---0-|       |-0-0-0-0| 
|5---5---|4---4---|       |--2---2-| 
|--------|--------|       |0---0---|
     
     
End bit:
     
|----0---|----0---|---0----|---0----|---0----|---0----| 
|--5---5-|--4---4-|--5--5--|--4--4--|--5--5--|--4--4--| 
|-0-0-0-0|-0-0-0-0|-0--0-0-|-0--0-0-|-0--0-0-|-0--0-0-| 
|--0---0-|--0---0-|--0--0-0|--0--0-0|--0--0-0|--0--0-0| 
|5---5---|4---4---|5--5----|4--4----|5--5----|4--4----| 
|--------|--------|--------|--------|--------|--------|
     
|-------0|----0---|
|----4---|-4----4-|
|--2-----|---2----| to end (from TONR version)
|-0-0-0--|0-0--0-0|
|--2---2-|-2-2--2-|
|0---0--0|----0---|
     
     
Tabbed by Chris Healey

(thanks to Luke King for a correction)