Artist: desyfer down, Title: forever with you - CGDGBE

C
G
D
G
B
E

desyfer down - forever with you

Tuning: Drop C (in standard tuning)& G

Intro/Verse 1: Gtr. 1
       Fsus2      G                   Am       G            Fsus2     G
e|--------------------------------------------------------------------------|
B|------------------------------------------0-----0--1-0--------------------|
G|-----12-----12-------12--12-10-9-0-------5-----5------2-0--------12-----12|
D|---10-----10----0--10---------------2--------0------------10---10---0-10--|
G|-10-----10------0-------------------2--2-----0------------10-10-----0-----|
C|--------------------------------------------------------------------------|

                 G/B  Cadd9
e|--------------------------------------------------------------------------|
B|-----------------3----3---------------------------------------------------|
G|-12-10-9-0-----p5----5----------------------------------------------------|
D|--------------------------------------------------------------------------|
G|-----------m4-4----r5-----------------------------------------------------|
C|--------------------------------------------------------------------------|

Pre-Chorus: (First Time)
      Fsus2
e|--------------------------------------------------------------------------|
B|--------------------------------------------------------------------------|
G|-12--12--12---------------------------------------------------------------|
D|-10--10-----10------------------------------------------------------------|
G|-10--10-----10------------------------------------------------------------|
C|--------------------------------------------------------------------------|

Chorus w/variations
   Am   G  F    Gsus4 C G/B Am G   Dsus4 G C  Am  G F Fsus2  G F Fsus2 Gsus4
e|------------------------------------------------------C-------------------|
B|------------------------------------------------------5-G/B---------(1)---|
G|------------Fsus2--5-5-5-------Fsus2---0-5------------5--0-0---------0----|
D|-------0--7--5-----5-5-5-----0-7-5---0-0-5-10---0-7-5-5--0-0-7---5-5-0----|
G|-9--9--0--5--5---7---5-4-9-9-0-5-5-2-0-0-5-9--9-0-5-5-5--4-0-5---5-5-0----|
C|-9--9-----5--5---7-------9-9---5-5-2-------9--9---5-5-0------5-5-5-5------|

Verse 2: Gtr. 2
                                            Fill: 
e|--------------------------------------------------------------------------|
B|--------------------------------------------------------------------------|
G|--------0--2--2-2-0--5-5-5-5--5-5--5-----(3h2p0---------------------------|
D|-5--5-5-0--2--2-2-0--5-5-5-0--5-5--5-----------0)-------------------------|
G|-5--5-5-0--2--2-2-0--5-5-5-0--4-4--5--------------------------------------|
C|-5--5-5--------------5-5-5------------------------------------------------|

Pre-chorus 2:
    Fsus2
e|--------------------------------------------------------------------------|
B|--------------------------------------------------------------------------|
G|-5-5-5-5-5----------------------------------------------------------------|
D|-5-5-5-5-5----------------------------------------------------------------|
G|-5-5-5--------------------------------------------------------------------|
C|-5-5-5--------------------------------------------------------------------|

Bridge: (2:33
  Am    G    F    G    Am   G    F    Am   G
e|--------------------------------------------------------------------------|
B|--------------------------------------------------------------------------|
G|-2----0---------0----2----0---------2----0--------------------------------|
D|-2----0----3----0----2----0----3----2----0--------------------------------|
G|-2***-0***-5----0***-2***-0***-5----2***-0***-----------------------------|
C|-----------5***----------------5***---------------------------------------|

Solo: [Touch of wah-wah pedal...]

e|-/12...-------------------------------------------------------------------|
B|--------15...-13...-12...-------------------------------------------------|
G|--------------------------12b---/18----17----13----15----13---------------|
D|-----------------------------------------------------------12b------------|
G|--------------------------------/15...-14...-10...-12...------------------|
C|--------------------------------------------------------------------------|

Do 12h15p12 over and over with picking! Also last part of solo w feedback!

e|-13p12----12-15b-13p12--------13p12--------12h15p12-----------------------|
B|-------15--------------13b---------13---------------12/13\12-----9brb-----|
G|--------------------------14b--------12b---------------------12b----------|
D|---------------------------------------------------------------------10b-9b
G|--------------------------------------------------------------------------|
C|--------------------------------------------------------------------------|

End: For 5555 glide pick and let ring!
    G/B  C     
e|--------------------------------------------------------------------------|
B|----3--5------------------------------------------------------------------|
G|---5---5------------------------------------------------------------------|
D|-------5------------------------------------------------------------------|
G|-4-----5------------------------------------------------------------------|
C|--------------------------------------------------------------------------|

************************************
| /   slide up
| \   slide down
| h   hammer-on
| p   pull-off
| b   Bend
| brb Bend release bend
************************************
Tabs too difficult? Try these easy step-by-step video lessons and learn fast!Tabbed by:
Email:

Tuning: Drop C (in standard tuning)& G

Intro/Verse 1: Gtr. 1
       Fsus2      G                   Am       G            Fsus2     G
e|--------------------------------------------------------------------------|
B|------------------------------------------0-----0--1-0--------------------|
G|-----12-----12-------12--12-10-9-0-------5-----5------2-0--------12-----12|
D|---10-----10----0--10---------------2--------0------------10---10---0-10--|
G|-10-----10------0-------------------2--2-----0------------10-10-----0-----|
C|--------------------------------------------------------------------------|

                 G/B  Cadd9
e|--------------------------------------------------------------------------|
B|-----------------3----3---------------------------------------------------|
G|-12-10-9-0-----p5----5----------------------------------------------------|
D|--------------------------------------------------------------------------|
G|-----------m4-4----r5-----------------------------------------------------|
C|--------------------------------------------------------------------------|

Pre-Chorus: (First Time)
      Fsus2
e|--------------------------------------------------------------------------|
B|--------------------------------------------------------------------------|
G|-12--12--12---------------------------------------------------------------|
D|-10--10-----10------------------------------------------------------------|
G|-10--10-----10------------------------------------------------------------|
C|--------------------------------------------------------------------------|

Chorus w/variations
   Am   G  F    Gsus4 C G/B Am G   Dsus4 G C  Am  G F Fsus2  G F Fsus2 Gsus4
e|------------------------------------------------------C-------------------|
B|------------------------------------------------------5-G/B---------(1)---|
G|------------Fsus2--5-5-5-------Fsus2---0-5------------5--0-0---------0----|
D|-------0--7--5-----5-5-5-----0-7-5---0-0-5-10---0-7-5-5--0-0-7---5-5-0----|
G|-9--9--0--5--5---7---5-4-9-9-0-5-5-2-0-0-5-9--9-0-5-5-5--4-0-5---5-5-0----|
C|-9--9-----5--5---7-------9-9---5-5-2-------9--9---5-5-0------5-5-5-5------|

Verse 2: Gtr. 2
                                            Fill: 
e|--------------------------------------------------------------------------|
B|--------------------------------------------------------------------------|
G|--------0--2--2-2-0--5-5-5-5--5-5--5-----(3h2p0---------------------------|
D|-5--5-5-0--2--2-2-0--5-5-5-0--5-5--5-----------0)-------------------------|
G|-5--5-5-0--2--2-2-0--5-5-5-0--4-4--5--------------------------------------|
C|-5--5-5--------------5-5-5------------------------------------------------|

Pre-chorus 2:
    Fsus2
e|--------------------------------------------------------------------------|
B|--------------------------------------------------------------------------|
G|-5-5-5-5-5----------------------------------------------------------------|
D|-5-5-5-5-5----------------------------------------------------------------|
G|-5-5-5--------------------------------------------------------------------|
C|-5-5-5--------------------------------------------------------------------|

Bridge: (2:33
  Am    G    F    G    Am   G    F    Am   G
e|--------------------------------------------------------------------------|
B|--------------------------------------------------------------------------|
G|-2----0---------0----2----0---------2----0--------------------------------|
D|-2----0----3----0----2----0----3----2----0--------------------------------|
G|-2***-0***-5----0***-2***-0***-5----2***-0***-----------------------------|
C|-----------5***----------------5***---------------------------------------|

Solo: [Touch of wah-wah pedal...]

e|-/12...-------------------------------------------------------------------|
B|--------15...-13...-12...-------------------------------------------------|
G|--------------------------12b---/18----17----13----15----13---------------|
D|-----------------------------------------------------------12b------------|
G|--------------------------------/15...-14...-10...-12...------------------|
C|--------------------------------------------------------------------------|

Do 12h15p12 over and over with picking! Also last part of solo w feedback!

e|-13p12----12-15b-13p12--------13p12--------12h15p12-----------------------|
B|-------15--------------13b---------13---------------12/13\12-----9brb-----|
G|--------------------------14b--------12b---------------------12b----------|
D|---------------------------------------------------------------------10b-9b
G|--------------------------------------------------------------------------|
C|--------------------------------------------------------------------------|

End: For 5555 glide pick and let ring!
    G/B  C     
e|--------------------------------------------------------------------------|
B|----3--5------------------------------------------------------------------|
G|---5---5------------------------------------------------------------------|
D|-------5------------------------------------------------------------------|
G|-4-----5------------------------------------------------------------------|
C|--------------------------------------------------------------------------|

************************************
| /   slide up
| \   slide down
| h   hammer-on
| p   pull-off
| b   Bend
| brb Bend release bend
************************************
T