Artist: Nick Drake, Title: Hazey Jane - CGCFCE

C
G
C
F
C
E

Nick Drake - Hazey Jane

HAZEY JANE I

Tuning CGCFCE capo 2
     


This gets a bit complicated in its structure, so I've given some 
of the bars letters to identify them
     
INTRO
     
--------|----------0-----|------0---------|----------0-----|3-----0- 
--------|----0-----0-----|0-----0---------|----0-----0-----|2-----0- 
02------|----0-----0-----|0-----0-------0-|(2)-2-----2-----|0-----2- 
--02----|----2--2-----2--|2--2--------02--|----0--0-----0--|---0---- 
----02--|--2---2-----2---|--2-------02----|--0---0-----0---|--0----- 
------0-|2-------2-----2-|----2---02------|0-------0-----0-|----0---
     
(rpt above, then)
               (A)
--------|1-0-------------|----0-----------|3-----0-------1-| 
----0---|0-----0---0-----|------0---------|--2-------0-----| 
----2---|------0---0-----|02------2-------|--2-------2---4-| 
-0--0---|----0---0---0---|--0-------0-----|0-----0-------0-| 
0-----2-|--------------2-|0-----------0---|--0-------0-----| 
--0-----|----------------|--------------0-|----0-------0---|
     
                                         (B)
|----1---0-0-----|1-0-------------|------------0---|----------------| 
|--0-------0-----|0-----0---0---0-|------0---------|--0---0---0---0-| 
|----4---2-------|------0---0---0-|----02----2-----|2-----0---0---0-| 
|----0---0---0---|----0---0---0---|---0----0-----0-|----0---2---2---| 
|--------------2-|----------------|--0-------------|------2---1---0-| 
|----------------|----------------|0---------------|----------------|
     
|--------------0-|----------------|
|--------0-------|----0-----------|
|----0-2-----2---|--2---2---------|
|---0------0-----|0-------0---0---|
|--0-------------|----------0-----|
|0---------------|--------------0-|
     
VERSE (at last)
(nb all these are at best approximate - they vary from 
verse to verse, and half of the bass notes get buried 
under music, so it's a bit tricky to work out. I tend
to go for a semi-random approach to the right hand myself)
     
|-----(0)--------|       |----------------| 
|0-----0---------|       |------0---------| (x2 - the last 
|4-----4---------|       |0---------------|  4 becomes a 0 
|--0-----0---0---| (x2)  |--4-----4---4---|  second time) 
|0-----0---0-----|       |0---------0-----| 
|----0---------0-|       |----0---------0-|
     
|1-----1---------|1-----1-----1---|   |0-----0---------| 
|0-----0---------|0-----0-----0---|   |0-----0---------| 
|4-----4---------|4-----4-----4---|   |2-----2---------| 
|---0-----0--0---|---0-----0----0-|   |---0-----0--0---| (x2) 
|--0-----0-------|--0-----0-------|   |--0-----0-------| 
|----0-----0---0-|----0-----0-----|   |----0-----0---0-|
     
"Hey slow Jane, make sense.." (again, a tiny bit approximate)
     
                                (C)               (D)
|----------------|       |----------0-----|3-----0---------| 
|----0-----0-----|       |----0-----0-----|2-----0---------| 
|----0--0--0-----|       |----2-----2-----|0-----2---------| 
|------2-------2-| (x2)  |----0--0-----0--|---0-----0--0---| 
|--2---------2---|       |--0---0-----0---|--0-----0-------| 
|2-------2-------|       |0-------0-----0-|----0-----0---0-|
     
"Slow slow Jane..."
                                (E)               (F)
|----------------|       |------------0---|3-----0---------| 
|----0-----0-----|       |------0---------|--2-----0-------| 
|----0--0--0-----| (x2)  |----02----2-----|----0-----2-----| 
|------2-------2-|       |---0----0-----0-|------------0---| 
|--2---------2---|       |--0-------------|--------------2-| 
|2-------2-------|       |0---------------|0-----0---------|
     
rpt intro from bar A, then next verse.
(the "slow slow jane we're on the move" bit in V2 has C and D 
again instead of E and F)
     
"Do it for you..." section
     
|----------------|----------------|then same     
|---(5)---(5)---(|5)---(5)--------|picking   5   5 3   5   5   3   3 
|----7-----7-----|7-----7-----7---| for      5   7 5   7   5   3   5 
|----5--5--5--5--|5--5--5--5--5-7-|these     5/7 5 3/7 5/7 5   3/5 3 
|--5---5-----5---|--5-----5-------|chords    7   5 3   5   7/5 5   3 
|5-------5-----5-|----5-----5-----|          5   5 3   5   5   3   3
     
rpt intro from bar B, then next verse.
     
"slow slow jane, fly on by" has up to bar E as in V1, then
     
Ý----------------Ý
Ý--0-------------Ý
Ý2---2---02------Ý and 1st line of intro repeats to end
Ý------0---02----Ý
Ý------------02--Ý
Ý--------------0-Ý

Tabbed by Chris Healey