Artist: Beck (Skip James Cover), Title: HES A MIGHTY GOOD LEADER - C#G#C#FG#C#

C#
G#
C#
F
G#
C#

Beck (Skip James Cover) - HES A MIGHTY GOOD LEADER

beck
he's a mighty good leader
album: one foot in the grave
submitted by m. burgess


open C# tuning


Intro follows this basic pattern:
     
C# ||-----0-------------|| 
G# ||----------0--------|| 
F  ||---------------0---|| 
C# ||-----0------0------|| 
G# ||-------------------||
C# ||-0------0----------|| 

C# ------0--2/4---4----------4--2--0--------0-------- 
G# -0--2-------------0----------------0h2-----0------ 
F  -------------0------0----------------------------- 
C# ------0--2/4--------------4--2--0------0--------0- 
G# -0--2------------------------------0h2------------ 
C# -----------------------0---------------------0---- 

------0--2/4---4---------4--5---4------------------ 
-0--2-------------0---------------------0------0--- 
-------------0------0---------0---0---------------- 
------0--2/4-------0-----4--5---4---------4------4- 
-0--2---------------------------------------------- 
-----------------------0--------------0------0----- 

-5-----4--------4-------4--2--0---------0---------
---------------------0--------0--0h2--------2-----
----0-----0----------------------0h1-----------1--
-5-----4------4----4----4--2--0------0------------
---------------------------------0h2------2-------
------------0----0--------------------------------

------------2--------------------0- 
-2-0------0---0--------2p0----0---- 
---0--0h1-------1----1-----1--0---- 
---0--0h2------------2-----------0- 
-2----------------0---------------- 
------------------------------0---- 

"solo"

-7--7--7--7------7---------
-------------7(9)--(9)7--5-
---------------------------
----0-----0-----0------0---
---------------------------
-0-----0-----0-----0-------

outro:

--------0----
--0---2----3-
-------------
----0---0----
-------------
-0----0----0-


He's a mighty good leader, 
He's a mighty good leader 
He's a mighty good leader, all the way 
All the way, he's a mighty good leader 
He's a mighty good leader, all the way 

He took my mother, 
He took my mother, 
He took my mother, all the way 
All the way, way up to heaven 
He took my mother, all the way