Artist: Nick Drake, Title: Horn - EADGBE

E
A
D
G
B
E

Nick Drake - Horn

HORN

Tuning: standard, but detuned one semitone


D,G and B strings only:

|-(14)--(15)-|-(10)----|-8--7-|-(10)----|
|- -  --  - -|  -  ----|------|- -  ----|
|0 -  --  - -|0 -  ----|0-----|0 -  ----|

and rpt. then
               *      *
|-8--7-|-3----|-2--3-|------|
|------|------|------|-2----|
|0-----|0-----|0-----|0-----|

|-2--3-|------|2-----|3-----|
|------|-2----|------|------|
|0-----|0-----|0-----|0-----|

rpt whole song, missing out bars with *.


Tabbed by Chris Healey