Artist: Jeff Buckley, Title: Last Goodbye - DGDGBD

Card image

D

Card image

G

Card image

D

Card image

G

Card image

B

Card image

D

Jeff Buckley - Last Goodbye

INTRO: - Slide guitar.
------

D|-2-------(2)/5/---12------(12)/7-----|
B|-2-------(2)/5/---12------(12)/7-----|
G|-2-------(2)/5/---12------(12)/7-----| PLAY
D|-2-------(2)/5/---12------(12)/7-----|  x4
G|-------------------------------------|
D|-------------------------------------|

D|--0-----0--0--0-----0--0-----0--0-----0--0--0--0-|
B|--0-----0--0--0-----0--0-----0--0-----0--0--0--0-|
G|-12----12-12-12----12-12----11-11----11-11-11-12-| PLAY
D|--0-----0--0--0-----0--0-----0--0-----0--0--0--0-|  x4
G|-12----12----12----12-------11-11----11----11----|
D|--0-----------0-----0--------0--0-----0-----0----|

D|-------------------------------------------------|
B|-----2--------2--------2-----2-/5--5-----5--5--0-|
G|-----2--------2--------2-----2-/5--5-----5--5--0-|
D|-----2--------2--------2-----2-/5--5-----5--5--0-|
G|-----2--------2--------2-----2-/5--5-----5--5--0-|
D|--4--------4--------4--------4-/7--7-----7--7----|
                                                    PLAY x2
D|-----0--------0--------0-------------------------|/
B|-----0--------0--------0-----------7-----7--7--0-|
G|-----0--------0--------0-----------7-----7--7--0-|
D|-----0--------0--------0-----------7-----7--7--0-|
G|-----0--------0--------0-----------7-----7--7--0-|
D|--2--------2--------2--------2-/9----------------|

D|-------------------------------------------------|
B|-----2--------2--------2-----2-/5--5-----5--5--0-|
G|-----2--------2--------2-----2-/5--5-----5--5--0-|
D|-----2--------2--------2-----2-/5--5-----5--5--0-|
G|-----2--------2--------2-----2-/5--5-----5--5--0-|
D|--4--------4--------4--------4-/7--7-----7--7----|

D|-----0--------0--------0-------------------------|
B|-----0--------0--------0-----------7-----7--7----|
G|-----0--------0--------0-----------7-----7--7--8-|
D|-----0--------0--------0-----------7-----7--7--8-|
G|-----0--------0--------0-----------7-----7--7--8-|
D|--2--------2--------2--------2-/9-------------10-|

D|--0--0-----0--0-----0--0-----0--0--0--0--0--0--0-|
B|--0--0-----0--0-----0--0-----0--0--0--0--0--0--0-|
G|--0--0-----0--0-----0--0-----0--0--0--0--0--0--0-|
D|-11-11----11-11----11-11----11-11-11-11-11-11--9-|
G|--9--9-----9--9-----9--9-----9--9--9--9--9--9--7-|
D|-11-11----11-11----11-11----11-11-11-11-11-11----|

D|--0--0--0--0--0--------0--0--0--0--0--0--0--0----|
B|--0--0--0--0--0--------0--0--0--0--0--0--0--0----|
G|--0--0--0--0--0--------0--0--0--0--0--0--0--0----|
D|--9--9--9--9--9--------9--9--9--9--9--9--9--9--0-|
G|--7--7--7--7--7--------7--7--7--7--7--7--7--7--0-|
D|--9--9--9--9--9--------9--9--9--9--9--9--9--9--0-|



INTRO: - Bass arranged for guitar.
------

G|-------------------------------------|
D|-------------------------------------|
G|--2--2--2----5---5--0--0--0----7---7-|
D|-4--4--4--4/7---7--2--2--2--2/9---9--|



VERSE:
------

G/D           D6         G/D
This is our last goodbye,
D6        G/B           Aaad11     Em7
I hate to feel the love between us die,
         G
But it's over...
          G
Just hear this and then I'll go.
    A                   A
You gave me more to live for,
Dsus2            D5
More than you'll ever know.



BRIDGE 1:
---------

D|--0-----0--0--0-----0--0-----0--0-----0--0--0--0-|
B|--0-----0--0--0-----0--0-----0--0-----0--0--0--0-|
G|-12----12-12-12----12-12----11-11----11-11-11-12-| PLAY
D|--0-----0--0--0-----0--0-----0--0-----0--0--0--0-|  x4
G|-12----12----12----12-------11-11----11----11----|
D|--0-----------0-----0--------0--0-----0-----0----|



VERSE:
------

G/D          D6      G/D
This is our last embrace,
D6        G/B     Aaad11         Em7
Must I dream and always see your face?
    G               A          D
Why can't we overcome this wall?
      A*                               G
Baby, maybe it's just because I didn't know you at all 



BRIDGE 2:
---------

D|------------------------------------------------|
B|------------------------------------------------|
G|-----5--------5-----5--5-------5--5--5--5--5--5-|
D|-----3--------3-----3--3-------3--3--3--3--3--3-|
G|-----5--------5-----5--5-------5--5--5--5--5--5-|
D|--0-----0--0----------------0--0--0--0--0--0--0-|
                                                   PLAY x2
D|------------------------------------------------|/
B|------------------------------------------------|
G|-----5--------5-----5--5-----/10-10-10-10-10----|
D|-----3--------3-----3--3------------------------|
G|-----5--------5-----5--5-----/10-10-10-10-10----|
D|--0-----0--0----------------0--0--0--0--0--0----|



VERSE:
------

A       C       G
Kiss me, please kiss me,
D           A             C              G
But kiss me out of desire, babe, and not consolation,
D               A              C           G                  D
Oh, you know it makes me so angry 'cause I know that in time,
A                       G
I'll only make you cry, this is our last goodbye.



BRIDGE 2:
---------

D|--5--------5--5--5--5--5-----0--0--0--0--0--0--0-|
B|--3--------3--3--3--3--3-----0--0--0--0--0--0--0-|
G|--0--------0--0--0--0--0-----0--0--0--0--0--0--0-| PLAY
D|--0--------0--0--0--0--0-----0--0--0--0--0--0--0-|  x7
G|-(0)---------------------------------------------|
D|-(5)---------------------------------------------|

D|-------------------------------------------------|
B|-15-15-15-15-15----15-15-15-15-14-14-14-14-14--0-|
G|-14-14-14-14-14----14-14-14-14-14-14-14-14-14--0-|
D|-12-12-12-12-12----12-12-12-12-12-12-12-12-12--0-|
G|-14-14-14-14-14----14-14-14-14-14-14-14-14-14--2-|
D|-------------------------------------------------|

D|--0--0--0--0--0-----0--0--------0-----0--0--0--0-|
B|--0--0--0--0--0-----0--0--------0-----0--0--0--0-|
G|--4--4--4--4--4-----4--4----/9--6-----6--6--6--6-|
D|--0--0--0--0--0-----0--0--------0-----0--0--0--0-|
G|--4--4--4--4--4-----4--4-------------------------|
D|---------------------------/11--7-----7-----7----|

D|--0--0--0--0--0-----0--0-----0--0--0--0--0--0----|
B|--0--0--0--0--0-----0--0--0--0--0--0--0--0--0--0-|
G|--4--4--4--4--4-----4--4-----4--4--4--4--4--4--0-|
D|--0--0--0--0--0-----0--0-----0--0--0--0--0--0--0-|
G|-------------------------------------------------|
D|--5--5--5--5--5-----5--5--------5-----5-----5----|

D|--0--0--0--0--0-----0--0--------0-----0--0--0--0-|
B|--0--0--0--0--0-----0--0--------0-----0--0--0--0-|
G|--4--4--4--4--4-----4--4----/9--6-----6--6--6--6-|
D|--0--0--0--0--0-----0--0--------0-----0--0--0--0-|
G|--4--4--4--4--4-----4--4-------------------------|
D|---------------------------/11--7-----7-----7----|

D|--0--0--0--0--0--0--0-----0--0--0-----0--0--0--0-|
B|--0--0--0--0--0--0--0-----0--0--0-----0--0--0--0-|
G|--0--0--0--0--0--0--0-----0--0--0-----0--0--0--0-|
D|--2--2--2--2--2--2--4-----4--4--5-----5--5--5--5-|
G|-------------------------------------------------|
D|--2-----2-----2-----4-----4-----5-----5-----5----|

D|--0--0--0--0--0-----0--0--------0-----0--0--0--0-|
B|--0--0--0--0--0-----0--0--------0-----0--0--0--0-|
G|--4--4--4--4--4-----4--4----/9--6-----6--6--6--6-|
D|--0--0--0--0--0-----0--0--------0-----0--0--0--0-|
G|--4--4--4--4--4-----4--4-------------------------|
D|---------------------------/11--7-----7-----7----|

D|--0--0--0--0--0--0--0--0--0--0--0--0--0--0--0--0-|
B|--0--0--0--0--0--0--0--0--0--0--0--0--0--0--0--0-|
G|--4--4--4--4--4--4--4--4--4--4--4--4--4--4--4--0-|
D|--0--0--0--0--0--0--0--0--0--0--0--0--0--0--0--0-|
G|-------------------------------------------------|
D|--5--5--5--5--5--5--5--5--5--5--5--5--5--5--5----|



VERSE:
------

D*         Gmaj7/B  Aadd11       Gmaj7         D*
  Did you say, "No, this can't happen to me,"
             Gmaj7/B         D/A        G5/6
And did you rush to the phone to call?
G5          D           Gmaj7/B
Was there a voice unkind
       Daad11
In the back of your mind,
        Em7*  Bm7* Am11 G5         Cadd9
Sayin', "May - hey - be you didn't know him at all,
           G/B
You didn't know him at all, oh, you didn't know."



BRIDGE 3:
---------

D|-----2--------2--------2--------5--5--------5----|
B|-----2--------2--------2--------5--5--------5--0-|
G|-----2--------2--------2--------5--5--------5--0-|
D|-----4--------4--------4--------7--7--------7--0-|
G|-----2-------------------------------------------|
D|--4--------4--------4-------/7-----------7-------|
                                                    PLAY x2
D|-----0--------0--------0--------7--7--------7----|/
B|-----0--------0--------0--------7--7--------7--0-|
G|-----0--------0--------0--------7--7--------7--0-|
D|-----0--------0--------0--------9--9--------9--0-|
G|-----0--------0--------0--------7--7--------7----|
D|--2--------2--------2-------/9-----------9-------|



VERSE:
------

G/D                        D6                 G/D       D6
Well, the bells out in the church tower chime,
Cadd9                    G           Aaad11*         G
Burning clues into this heart of mine.
         C/D            D                 C/D
Thinkin' so hard on her soft eyes and the memory
           D
Of her sighs that it's all over... it's over.



END: - Comes in at "it's all" in previous verse.
----

D|----------------------|
B|----------------------|
G|-12-12/14-14/16-16/17-|
D|----------------------|
G|-12-12/14-14/16-16/17-|
D|----------------------|

D|-------------------------------------------------|
B|-------------------------------------------------|
G|-17-17-17-17-17-17-17-17----17-17-17-17-17-17-17-|
D|-------------------------------------------------|
G|-17-17-17-17-17-17-17-17----17-17-17-17-17-17-17-|
D|-------------------------------------------------|

D|-------------------------------------------------|
B|-------------------------------------------------|
G|-17-17-17-17-17-17-17-17----10-10----10/12/10----|
D|-------------------------------------------------|
G|-17-17-17-17-17-17-17-17----10-10----10/12/10----|
D|-------------------------------------------------|

D|-------------------------------------------------|
B|-------------------------------------------------|
G|/17-17-17-17-17-17-17-17----17-17-17-17-17-17-17-|
D|-------------------------------------------------|
G|/17-17-17-17-17-17-17-17----17-17-17-17-17-17-17-|
D|-----0--0--0--0--0--0--0-----0--0--0--0--0--0--0-|

D|------------------------------------------------------------|
B|------------------------------------------------------------|
G|-17-17-17-17-17---------------------------------------------|
D|------------------------------------------------------------|
G|-17-17-17-17-17--16h17p16-14h16p14-12h14p12-11h12p11-9h11p9-|
D|------------------------------------------------------------|

D|-------------------------------------------------|
B|-------------------------------------------------|
G|--7-----7--7--7-----7--7-----------6--5--6--6--9-|
D|-------------------------------------------------|
G|--7-----7--7--7-----7--7-----------6--5--6--6--9-|
D|-------------------------------------------------|

D|-----------------------------------------------0-|
B|-----------------------------------------------0-|
G|-11----------------------------------------------|
D|-------------------------------------------------|
G|-11-----------9h11p9-7h9p7p5---4--2-----2-4------|
D|-------------------------------------------------|

D|--0----------------------------------------------|
B|--3----------------------------------------------|
G|--0----------------------------------------------|
D|--2----------------------------------------------|
G|-------------------------------------------------|
D|-------------------------------------------------|




CHORDS:
-------

   G/D  D6   G/B Aaad11 Em7   G    G    A    A
D|--0----0----0----0-----0----0----0---------2--|
B|--0----0----0----2-----0----0----0----1----2--|
G|-12---11----0----2-----0----0----0----2----2--|
D|--0----0----9----0-----0----5----0----3----2--|
G|-12---11----7----2-----0----0----0---------2--|
D|--0----0----9----------2----5-----------------|

  Dsus2 D5    D   A*    C   D*   Gmaj7/B  Gmaj7
D|--2----0---------2---------4------5-------4---|
B|--3----3----7----2----5----3------3-------0---|
G|--2----0----7----2----5----2------0-------0---|
D|--0----0----7----2----5----0------0-------0---|
G|------------7----2----5-----------4-------0---|
D|----------------------------------------------|

  D/A  G5/6  G5 Daad11 Em7* Bm7* Am11 Cadd9 Aaad11*
D|-------2----5----7---------0----0-----------0---|
B|-15----3----3----7----8----3----1-----3-----5---|
G|-14----0----0----0----7----2----0-----4-----6---|
D|-12----0----0----0----9----4----2-----------7---|
G|-14-------------------9----4----2-----5-----7---|
D|------------------------------------------------|