Artist: Verdena , Title: Logorrea Esperti allOpera - EBABDBGBBBE

D#
G#
C#
F#
A#
E

Verdena - Logorrea Esperti allOpera

Tune 1/2 step down (Eb Ab Db Gb Bb Eb)


Intro

|-----------------|-----------------|---------------6-|-----------6-----|
|-----------------|-----------------|-----------------|-------------8-5-|
|-----------------|-----------------|-----------------|-----------------|
|-----------------|-----------------|-----------------|-----------------|
|-----------------|-----------------|-----------------|-----------------|
|-----------------|-----------------|-----------------|-----------------|  
Main riff

|-----------------|-----------------|-----------------|-----------------|
|-----3-3-----3-3-|-----3-3-------3-|-----6-6-----6-6-|-----6-6-------6-|
|-----3-3-----3-3-|-----3-3-------3-|-----6-6-----6-6-|-----6-6-------6-|
|-----------------|-----------------|-----------------|-----------------|    (x4)
|-----------------|-----------------|-----------------|-----------------|
|-3-3-----3-3-----|-3-3-----3-3-3---|-6-6-----6-6-----|-6-6-----6-6-6---|


Verse 1

|----------|----------|----------|-----------------|
|----------|----------|----------|-----------------|
|-6--------|-6--------|-5--------|-5-5-5-5-3-3-3-3-|
|-----(x8)-|-----(x8)-|-----(x8)-|-----------------|   (x4)
|-4--------|-4--------|-3--------|-3-3-3-3-1-1-1-1-|
|----------|----------|----------|-----------------|
  Gli esperti      di moda 
  si grattano      la gola            aaah ed è
  giusto         oppure no               capirne il 
  senso              etico?              Ingoio un rospo!
 

Chorus (main riff x2)


Solo

|---------|-------------------|--------------|-----------------|
|---------|-------------------|--------------|-----------------|
|-7-7-7~--|-7-7s12-14-14-14b~-|-10-10-10-----|-10-10h11p10-----|
|---------|-------------------|----------11~-|-------------11~-|   (x4)
|---------|-------------------|--------------|-----------------|
|---------|-------------------|--------------|-----------------|