Artist: Michael Hedges, Title: Magic Farmer - cfcgae

C
F
C
G
A
E

Michael Hedges - Magic Farmer

Tuning:  (low) C F c G A E (high)


      |      |      |       |         |       |      |      |
  E|----------------------------0--|-----------------------------|
  A|--------------------3----5-----|------------7------5------3--|
  G|-------------------------------|---------0-------------0-----|
  c|-------------------------------|-----0-----------------------|
  F|-------------------------------|--7-------------6------------|
  C|-------------------------------|-----------------------------|

     |      |      |     |         |      |      |      |
  E|---------------------------|------------------------------|
  A|---------------2p0------0--|---------------------------0--|
  G|--------0------------0-----|-------------2----------------|
  c|----4------4---------0-----|----------0-------------0-----|
  F|-4-------------------------|------0-------------0---------|
  C|---------------4-----------|---5-------------5------------|

     |      |      |      |         |      |      |      |
  E|-------------------------0--|------------------------------|
  A|------------------3---5-----|-------------7------5------3--|
  G|-----------2----------------|----------0-------------0-----|
  c|--------0-------------0-----|------0-----------------------|
  F|----0-------------0---------|---7-------------6------------|
  C|-5-------------5------------|------------------------------|

     |      |      |     |         |      |      |      |
  E|---------------------------|------------------------------|
  A|---------------2p0------0--|---------------------------0--|
  G|--------0------------0-----|-------------2----------------|
  c|----4------4---------0-----|----------0-------------0-----|
  F|-4-------------------------|------0-------------0---------|
  C|---------------4-----------|---5-------------5------------|

     |      |      |         |         |      |      |      |
  E|----------------------------0--|------------------------------|
  A|------------------3------3-----|-------------7------5------3--|
  G|-----------2-------------------|----------0-------------0-----|
  c|--------0----------------0-----|------0-----------------------|
  F|----0----------------0---------|---7-------------6------------|
  C|-5-------------5---------------|------------------------------|

     |      |      |     |         |      |      |      |
  E|---------------------------|------------------------------|
  A|---------------2p0------0--|---------------------------0--|
  G|--------0------------0-----|-------------2----------------|
  c|----4------4---------0-----|----------0-------------0-----|
  F|-4-------------------------|------0-------------0---------|
  C|---------------4-----------|---5-------------5------------|

     |      |      |      |         |      |      |      |
  E|-------------------------0--|------------------------------|
  A|------------------3---5-----|-------------7------5------3--|
  G|-----------2----------------|----------0-------------0-----|
  c|--------0-------------0-----|------0-----------------------|
  F|----0-------------0---------|---7-------------6------------|
  C|-5-------------5------------|------------------------------|

     |      |      |     |         |      |      |      |
  E|---------------------------|------------------------------|
  A|------------------------0--|---------------------------0--|
  G|--------0--4---p--2--0-----|-------------2----------------|
  c|----4----------------0-----|----------0-------------0-----|
  F|-4-------------------------|------0-------------0---------|
  C|---------------4-4---------|---5-------------5------------|

     |      |      |      |         |      |     |      |
  E|----------------------------|-----------------------------|
  A|-------------------------0--|----------1p0-------------0--|
  G|-----------2----------------|-------------------0---------|
  c|--------0-------------0-----|------2----------------2-----|
  F|----0-------------0---------|---2---------------0---------|
  C|-5-------------5------------|----------------2------------|

     |      |     |     |         |      |      |      |
  E|----1---------------------|------------------------------|
  A|--------1p0------------0--|-------------0----------------|
  G|-----------------0--------|----------0---------0---------|
  c|--------------------------|------7-----------------7--4--|
  F|-2---------------0h-2-----|---4----------------6------4--|
  C|--------------2-----------|-----------------4------------|

    |    |    |     |      |      |      |      |
  E|-------------------------||-------------0----------------|
  A|-------------------------||---8--------------------------|
  G|-------------------------||----------5-------------7--7--|
  c|-------------------------||------5-------------5-----(7)-|
  F|-------------------------||---5-------------5--------(7)-|
  C|-------------------------||------------------------------|

     |      |     |    |         |       |      |      |
  E|--------------------------|-------------7--------------||
  A|---------------------^12--|----------8-------------10--||
  G|--------9--9------10------|----------------------------||
  c|----7-----(9)-9-----------|------0---------------------||
  F|-7--------(9)-------------|----------------------------||
  C|--------------------------|---5--------------------0---||

        |   |   |   |         |      |      |       |
  E|----------------0-----|-------------0------------------|
  A|-------------------8--|-----------------------------5--|
  G|----------------------|----------0--------------7------|
  c|----------------------|------9--------------7----------|
  F|----------------------|---9-------------7--------------|
  C|----------------------|--------------------------------|

     |      |      |      |         |     |     |     |
  E|----------------------------|--------------------------|
  A|-----------3-------------3--|-----------2--------0--0--|
  G|--------0-------------0-----|--------4--------------2--|
  c|----7-------------5---------|-----4-----------2-----0--|
  F|-6-------------5------------|--4-----------2-----------|
  C|----------------------------|-----------------------5--|

     |       |      |       |         |       |      |     |
  E|------------------------------|------------------------------|
  A|------------------------------|------------------------------|
  G|------------------------------|--------------------^7--------|
  c|------------------------------|--------------------^7--------|
  F|------------------------------|--------------------^7--------|
  C|----5p0h-5--5---5--5p0h-5--5--|---5--5p0h-5--5---5--0--0--2--|

     |      |      |       |       |    |     |  T   |   T
  E|-----------------------------|---------------^5------0--|
  A|-----------------------------|---------------^5------0--|
  G|-----------------^12---------|---------------^5------0--|
  c|-----------------^12---------|---------------^5------0--|
  F|-----------------^12---------|---------------^5------0--|
  C|----2---2--2---2--0----0--5--|------5--5--5--^5------5--|

     |      |     | T   |   T   |      |      | T   |  T
  E|----------------^5------0--|----------------^7-----0--|
  A|----------------^5------0--|----------------^7-----0--|
  G|----------------^5------0--|----------------^7-----0--|
  c|----------------^5------0--|----------------^7-----0--|
  F|----------------^5------0--|----------------^7-----0--|
  C|-5--5p0h5--5--5-^5------5--|\2--2p0h2--2--2-^7-----5--|
[ Tab from: http://www.guitaretab.com/h/hedges-michael/8049.html ]
      |     |     |  T   |  T
  E|-----------------^7-----0--|
  A|-----------------^7-----0--|
  G|-----------------^7-----0--|
  c|-----------------^7-----0--|
  F|-----------------^7-----0--|
  C|-\2--2p0h2--2--2-^7-----5--|

                        T        T
  E|--------------------^12------^12--------------------------^12----------------|
  A|--------------------^12------^12---------------------------------------------|
  G|--------------------^12------^12-------------------------------------^7------|
  c|--------------------^12------^12---------------------------------------------|
  F|-----------------------------------------------------------------------------|
  C|-5h7p0h5h7p0h5h7p0h5h7-p0h5h7p0-h5h7p0h5h7p0h5h7p0h5h7p0h5h7-p0h5h7p0h5--5p0-|
  E|-^7-----------------------------3---------0----------------------------------|
  A|--------------------------------------------------0--------------------------|
  G|-----------------------------------------------------------------------------|
  c|-----------------------------------------------------------------------------|
  F|-----------------------------------------------------------------------------|
  C|-h7p0h5h7p0h5h7p0h5h7p0h5h7p0h5h7p0h5h7p0h5h7p0h5h7p0h5h7p0h5h7p0h5h7p0h5h7

       T   T   T  T  T  T  T   T  T  T  T   T   T            T          T
  E|---^12-^12-------------^12-------------^12----------------------------------|
  A|---^12-^12-------------^12-------------^12----------------------------------|
  G|---^12-^12-------------^12-------------^12----------------------------------|
  c|---^12-^12-------------^12-------------^12----------------------------------|
  F|----------------------------------------------------------------------------|
  C|-p0h5---5---5--5--5--5--5---5--5--5--5--5---5h7p0h5h7p0--0h5h6h7p0--0h5h7p0-|

     T
  E|------------------^12----------------^7-----------------------------3------|
  A|---------------------------------------------------------------------------|
  G|-----------------------------^7--------------------------------------------|
  c|---------------------------------------------------------------------------|
  F|---------------------------------------------------------------------------|
  C|-0h5h6h7p0h5h7p0h5h7-p0h5h7p0h5h7p0h5h7p0h5h7p0h5h7p0h5h7p0h5h7p0h5h7p0h5h7

                                                             T   T    T  T  T  T
  E|----0-------1---------0----------------------------------^12-^12-------------|
  A|------------------------------0--------------------------^12-^12-------------|
  G|---------------------------------------------------------^12-^12-------------|
  c|---------------------------------------------------------^12-^12-------------|
  F|-----------------------------------------------------------------------------|
  C|-p0h5h7p0h5h7p0h5h7p0h5h7p0h5h7p0h5h7p0h5h7p0h5h7p0h5h7p0h5---5---5--5--5--5-|

     T
  E|-^12-----------------------------------------------------|
  A|-^12-----------------------------------------------------|
  G|-^12-------------------------------------------^7--------|
  c|-^12-------------------------------------------^7--------|
  F|-----------------------------------------------^7--------|
  C|--5-h7p0h5h7p0h5h7p0h5h7p0h5h7p0h5--5--5--5--5--0--0--2--|


     |      |      |       |        |     |     |     |
  E|-----------------------------|--------------------------|
  A|-----------------------------|--------------------------|
  G|-----------------^12---------|--------------------------|
  c|-----------------^12---------|--------------------------|
  F|-----------------^12---------|--------------------------|
  C|----2---2--2---2--0----0--5--|--5--5--5--5--5--5--5--5--|


    |     |     |     |           |      |      |      |
  E|---------------------0-----|-----------------------------|
  A|------------0--3--5--------|------------7------5------3--|
  G|---------0-----------------|---------0-------------0-----|
  c|------0--------------------|-----0-----------------------|
  F|---0-----------------------|--7-------------6------------|
  C|5--------------------------|-----------------------------|


     |      |      |     |         |      |      |      |
  E|---------------------------|------------------------------|
  A|---------------2p0------0--|---------------------------0--|
  G|--------0------------0-----|-------------2----------------|
  c|----4------4---------0-----|----------0-------------0-----|
  F|-4-------------------------|------0-------------0---------|
  C|---------------4-----------|---5-------------5------------|

     |      |      |      |         |      |      |      |
  E|-------------------------0--|------------------------------|
  A|------------------3---5-----|-------------7------5------3--|
  G|-----------2----------------|----------0-------------0-----|
  c|--------0-------------0-----|------0-----------------------|
  F|----0-------------0---------|---7-------------6------------|
  C|-5-------------5------------|------------------------------|

     |      |      |     |         |      |      |      |
  E|---------------------------|------------------------------|
  A|---------------2p0------0--|---------------------------0--|
  G|--------0------------0-----|-------------2----------------|
  c|----4------4---------0-----|----------0-------------0-----|
  F|-4-------------------------|------0-------------0---------|
  C|---------------4-----------|---5-------------5------------|

     |      |      |         |         |      |      |      |
  E|----------------------------0--|------------------------------|
  A|------------------3------3-----|-------------7------5------3--|
  G|-----------2-------------------|----------0-------------0-----|
  c|--------0----------------0-----|------0-----------------------|
  F|----0----------------0---------|---7-------------6------------|
  C|-5-------------5---------------|------------------------------|

     |      |      |     |         |      |      |      |
  E|---------------------------|------------------------------|
  A|---------------2p0------0--|---------------------------0--|
  G|--------0------------0-----|-------------2----------------|
  c|----4------4---------0-----|----------0-------------0-----|
  F|-4-------------------------|------0-------------0---------|
  C|---------------4-----------|---5-------------5------------|

     |      |      |      |         |      |      |      |
  E|-------------------------0--|------------------------------|
  A|------------------3---5-----|-------------7------5------3--|
  G|-----------2----------------|----------0-------------0-----|
  c|--------0-------------0-----|------0-----------------------|
  F|----0-------------0---------|---7-------------6------------|
  C|-5-------------5------------|------------------------------|

     |      |      |     |         |      |      |      |
  E|---------------------------|------------------------------|
  A|----------------p-------0--|---------------------------0--|
  G|--------0--4-----2---0-----|-------------2----------------|
  c|----4----------------0-----|----------0-------------0-----|
  F|-4-------------------------|------0-------------0---------|
  C|---------------4-4---------|---5-------------5------------|

     |      |      |      |         |      |     |      |
  E|----------------------------|-----------------------------|
  A|-------------------------0--|----------1p0-------------0--|
  G|-----------2----------------|-------------------0---------|
  c|--------0-------------0-----|------2----------------2-----|
  F|----0-------------0---------|---2---------------0---------|
  C|-5-------------5------------|----------------2------------|

     |      |     |     |         |      |      |      |
  E|----1---------------------|------------------------------|
  A|--------1p0------------0--|-------------0----------------|
  G|-----------------0--------|----------0---------0---------|
  c|--------------------------|------7-----------------7--4--|
  F|-2---------------0h-2-----|---4----------------6------4--|
  C|--------------2-----------|-----------------4------------|

    |    |    |     |      |      |      |      |
  E|-------------------------||-------------0----------------|
  A|-------------------------||---8--------------------------|
  G|-------------------------||----------5-------------7--7--|
  c|-------------------------||------5-------------5-----(7)-|
  F|-------------------------||---5-------------5--------(7)-|
  C|-------------------------||------------------------------|

     |      |     |    |         |       |      |      |
  E|--------------------------|-------------7--------------||
  A|---------------------^12--|----------8-------------10--||
  G|--------9--9------10------|----------------------------||
  c|----7-----(9)-9-----------|------0---------------------||
  F|-7--------(9)-------------|----------------------------||
  C|--------------------------|---5--------------------0---||

        |   |   |   |         |      |      |       |
  E|----------------0-----|-------------0------------------|
  A|-------------------8--|-----------------------------5--|
  G|----------------------|----------0--------------7------|
  c|----------------------|------9--------------7----------|
  F|----------------------|---9-------------7--------------|
  C|----------------------|--------------------------------|


     |      |      |      |
  E|----------------------------|--------------------------|
  A|-----------3-------------3--|-----------2--------0--0--|
  G|--------0-------------0-----|--------4-----------------|
  c|----7-------------5---------|-----4-----------2--------|
  F|-6-------------5------------|--4-----------2-----------|
  C|----------------------------|--------------------------|

     |     |     |     |        |     |     |     |
  E|----------0--------------|-----------0--------------|
  A|----------------------0--|-----------------------0--|
  G|-------2-----------2-----|--------2-----------2-----|
  c|----1-----------1--------|-----1-----------1--------|
  F|-1-----------------------|--1-----------------------|
  C|-------------1-----------|--------------1-----------|

     |     |     |     |       |  |  |  |
  E|----------0--------------|--------------||------------------------------|
  A|----------------------0--|--------------||------------------------------|
  G|-------2-----------2-----|--------------||------------------------------|
  c|----1-----------1--------|--------------||------------------------------|
  F|-1-----------------------|--1-----------||------------------------------|
  C|-------------1-----------|--------------||------------------------------|