Artist: Nick Drake, Title: Man In A Shed - BEBEBE

Card image

B

Card image

E

Card image

B

Card image

E

Card image

B

Card image

E

Nick Drake - Man In A Shed

MAN IN A SHED
     
Tuning BEBEBE capo 3
     


intro (timing a bit free):
     
--|-----0--0-------|-------------       0---- 
--|---0--0----00--0|---0-------04bend up-0--- 
--|--0-0--0--0---0-|--0-2-----0--       --0-- 
--|-5-------4---4--|-2---0-0-0---       ---0- 
0-|5-------4--44---|2-----2-0----       ----0 
--|----------------|----0--------       -----
     
|-----0--0-----------------0---
|---0--0----00--00--0-------0-4
|--0-0--0--0---0---0-0---02-2-2
|-5-------4---3---2---2--0--0-0
|5-------4---3---2-----2-------
|-----------------------0------
                          h (hammer)
     
(note - the 2nd string 5 is slid up to each time)
     
verse main pattern: (triplet rhythm)
               *
|------|---0--|0-----|------|
|-----0|------|-----0|------|
|---0--|0-----|---0--|2-----|
|--4---|--3--3|--2---|--0--0|
|4-----|3-----|2-----|---2--|
|------|------|------|0-----|
     
              (* - sometimes open second string instead)
     
major variations:
     
bar 2:      bars 3/4:
     
|--0---|    |------|------|
|---0--|    |---0--|------|
|0-----|    |--0-0-|--2--0|
|-----3|    |-2---0|-0--0-|
|3-----|    |2-----|2-----|
|------|    |------|---0--|
     
     
"When it rained...."
                                              *
|---------0--|-----0------|------------|--------0---| 
|-----0------|0-----------|-----0------|-----4---0--| 
|---0--0----0|---0----0---|---0--2-----|---0-------0| 
|--5-----5---|--4---4----4|--2-----0--0|--0---------| 
|5-----------|4--------4--|2--------2--|0-----------| 
|------------|------------|------------|------------|
                                               * - bend up semitone
     
|---------0--|-----0------|------------|------------|--0---------| 
|-----0------|0-----------|-----0------|-----0------|0--0-4--0---| 
|---0--0----0|---0----0---|---0--0-----|---0--0-----|02---2--2---| 
|--5-----5---|--4---4----4|--3-----3--3|--2-----2---|0----0--0---| 
|5-----------|4--------4--|3--------3--|2--------2--|------------| 
|------------|------------|------------|-----------0|----(0)(0)--|
     
variation on 4th bar (during instrumental bit):
     
|--0---------|
|4-----------| (this 4 bends up)
|--0---------|
|4-----------| (this 4 bends up)
|0----44-0--0| (this 4 bends quickly up and down a semitone) 
|---------4--|
     
     
outro: (not in triplet rhythm)
     
     
--|------0-0-----    |---0252----4---- 
--|---00------0--    |-02-------0-4--- 
--|--0-------0-2-    |---0252--4---4-- 
--|-4---3-3-2---0    |-02-----------0- 
2-|4---3---2-----    |0-------0------0 
--|------------0-    |----------------
     
     
Tabbed by Chris Healey