Artist: Nick Drake, Title: Mayfair - EADGBE

E
A
D
G
B
E

Nick Drake - Mayfair

MAYFAIR

Tuning: standard  capo 3rd fret


main pattern

|------------------------|------------2--2--------|
|2--2--2--2--2--2--2--2--|3--3--0--0--0--0--0--0--|
|2--2--2--2--2--2--2--2--|2--2--2--2--2--2--2--2--|
|2--2--2--2--2--2--2--2--|0--0--0--0--0--0--0--0--|
|0--0--------------------|------------------------|
|------4--4--2--2--0--0--|2--2--2--2--2--2--2--2--|

|------------------------|------------------------|
|2--2--2--2--0--0--0--0--|2--2--2--2--0--0--0--0--|
|2--2--2--2--1--1--1--1--|2--2--2--2--1--1--1--1--|
|2--2--2--2--2--2--2--2--|2--2--2--2--2--2--2--2--|
|0--0-----------2-----2--|0--0--------------------|
|------4--2--0-----------|------4--2--0--2--4--0--|
                                      *  *  *  *

notes: the bottom string notes at * sometimes come a beat earlier.


other bit:
                *
|------------------------|
|2--2--2--2--1--1--0--0--|
|2--2--2--2--2--2--1--1--|
|2--2--2--2--1--1--0--0--|
|0--0--------------------|
|------2--2--1--1--0--0--|

(the highest 1 at * is sometimes a 3)


Tabbed by Chris Healey