Artist: Placebo, Title: Meds - DGCFAD

D
G
C
F
A
D

Placebo - Meds

Intro:
x|----------------------------------------------------|
x|----------------------------------------------------|
F|-11-11-11-11-11-11-11-11---11-11-11-11-11-11-11-11--|
C|-11-11-11-11-11-11-11-11---11-11-11-11-11-11-11-11--|
G|-9--9--9--9--9--9--9--9----0--0--0--0--0--0--0--0---|
D|----------------------------------------------------|


x|----------------------------------------------------|
x|----------------------------------------------------|
F|-11-11-11-11-11-11-11-11---11-11-11-11-11-11-11-11--|
C|-11-11-11-11-11-11-11-11---11-11-11-11-11-11-11-11--|
G|-x--x--x--x--x--x--x--x----x--x--x--x--x--x--x--x---|
D|-10-10-10-10-10-10-10-10---9--9--9--9--9--9--9--9---|


Verse:
x|----------------------------------------------------|
x|----------------------------------------------------|
F|-11-11-11-11-11-11-11-11---11-11-11-11-11-11-11-11--|
C|-11-11-11-11-11-11-11-11---11-11-11-11-11-11-11-11--|
G|-9--9--9--9--9--9--9--9----0--0--0--0--0--0--0--0---|
D|----------------------------------------------------|


x|----------------------------------------------------|
x|----------------------------------------------------|
F|-11-11-11-11-11-11-11-11---11-11-11-11-11-11-11-11--|
C|-11-11-11-11-11-11-11-11---11-11-11-11-11-11-11-11--|
G|-x--x--x--x--x--x--x--x----x--x--x--x--x--x--x--x---|
D|-10-10-10-10-10-10-10-10---9--9--9--9--9--9--9--9---|


Chorus:
x|----------------------------------------------------|
x|----------------------------------------------------|
F|-11-11-11-11-11-11-11-11---11-11-11-11-11-11-11-11--|
C|-11-11-11-11-11-11-11-11---11-11-11-11-11-11-11-11--|
G|-9--9--9--9--9--9--9--9----0--0--0--0--0--0--0--0---|
D|----------------------------------------------------|


x|----------------------------------------------------|
x|----------------------------------------------------|
F|-11-11-11-11-11-11-11-11---11-11-11-11-11-11-11-11--|
C|-11-11-11-11-11-11-11-11---11-11-11-11-11-11-11-11--|
G|-x--x--x--x--x--x--x--x----x--x--x--x--x--x--x--x---|
D|-10-10-10-10-10-10-10-10---9--9--9--9--9--9--9--9---|


Bridge:
x|------------------------------------------------------------|
x|------------------------------------------------------------|
F|-13--14--14--14--14--14--14--13--13--14--14--14--14--14--14-|
C|-13--14--14--14--14--14--14--13--13--14--14--14--14--14--14-|
G|-11--12--12--12--12--12--12--11--11--12--12--12--12--12--12-|
D|------------------------------------------------------------|


x|-----------------------------------------------------------------|
x|-----------------------------------------------------------------|
F|-13--13--14--14--14--14--14--14--13--13--16--16--16--16--16--16--|
C|-13--13--14--14--14--14--14--14--13--13--16--16--16--16--16--16--|
G|-11--11--12--12--12--12--12--12--11--11--14--14--14--14--14--14--|
D|-----------------------------------------------------------------|