Artist: Fleetwood Mac, Title: Never Going Back Again - CGDGBE

C
G
D
G
B
E

Fleetwood Mac - Never Going Back Again

Song: Never going back again
Band: Fleetwood mac
Album: Dreams single 1977
Tabbed: Corey Mahoney
Tuning: C G D G B E
Capo on the 6th fret

This is really just another way to play this amazing song. I took Daniel Thomas's 
tab which was played on the 4th fret and changed the notes to suit how to play this song on 
6th fret, but really he deserves all the credit.

Tune the 5th string to G and the 6th string to C then slap your capo on.

This video shows how it's played pretty extraordinarily:
http://www.youtube.com/watch?v=YU_KGchx2Gw


Verse riff:
e|-----------|-----3-----3-----|-----------|-----3-----3---|
B|---1---0h1-|-------1-----1---|---1p0---3-|-1-----1-----1-|
G|-----------|---0-----0-----0-|-----------|---0-----0-----|
D|---2---0h2-|-----2-------2---|---2p0---3-|-----2-------2-|
A|-----0-----|---------0-------|-------0---|---------0-----|
D|-0---------|-0---------------|-0---------|-0-------------|

e|-0-----0-----0---|---0-----0-----0-|
B|---3-----3-----3-|-----3-----3-----|
G|-----------0-----|-------0---------|
D|-----3-------3---|-----3-------3---|
A|-0-------0-------|-0-------0-------|
D|-----------------|-----------------|

e|-------------|-----3---------|
B|-1-----3/5-3-|-1-----------1-|
G|---0---------|---------0-----|
D|-----2-3/5-3-|---2-------2---|
A|--------/0---|-------0-------|
D|-0-----------|-0-------------|

Chorus riff:
e|--------7-----|-8-------8-------8---|
B|---8----------|----8-------8--------|
G|--------------|-------5------5------|
D|---5--------5-|-------5--------5----|
A|------0---5---|------------0-----5--|
D|-0------------|-0-------------------|

e|---8--7-------|-8-------8-------8-----|
B|--------6-----|----8-------8-------8--|
G|------------5-|-------5-------5-------|
D|---5------5---|-------5---------5-----|
A|------0-------|------------0----------|
D|-0------------|-0---------------------|

e|---8----7-----|-8-------8-------8--|
B|--------------|----8-------8-------|
G|------------5-|-------5-------5----|
D|---5------5---|-------5---------5--|
A|------0-------|------------0-------|
D|-0------------|-0------------------|

e|-------------|-------3---------|
B|---1---0-----|-1-----------0h1-|
G|-----------0-|---0-------0-----|
D|---2-----0---|-----2-------0h2-|
A|-2-----------|-0-------0-------|
D|-----4-------|-----------------|

Lyrics:
VERSE 1
She broke down and let me in
Made me see where I've been

CHORUS
Been down one time
Been down two times
I'm never going back again

VERSE 2
You don't know what it means to win
Come down and see me again

CHORUS again