Artist: Alice in Chains, Title: Over Now - C#G#C#FG#C#

C#
G#
C#
F
G#
C#

Alice in Chains - Over Now

OVER NOW
by ALICE IN CHAINS

****TUNED IN OPEN D AND A HALF STEP DOWN****
    
Tuning (low to high):  D-A-D-F#-A-D

Rythym Figure #1

-4--7-6-4-4-4-4---4-4--4-4-
-4--4-4-4-7-6-4---4-4--4-4-
-4--4-4-4-4-4-4---5-4--5-4-
-4--4-4-4-4-4-4---4-4--4-4-
-4--4-4-4-4-4-4---4-4--4-4-
-4--4-4-4-4-4-4---4-4--4-4-

Rythym Figure #2

-3-2-0-0-0-0---0-0--0-0-  
-0-0-0-3-2-0---0-0--0-0-
-0-0-0-0-0-0---2-0--2-3-
-0-0-0-0-0-0---0-0--0-0-
-0-0-0-0-0-0---0-0--0-0-
-0-0-0-0-0-0---0-0--0-0-

Intro: Fig. 1, Fig. 2, Fig. 1, Fig. 2

Verse: Fig. 1 x2, Fig. 2, Fig. 1

Chorus: ("You know it's been on my mind...")

-7----7----7--7----7--7--7---7--7--6----6---6--6---9---9--9--9---9--9--9--9-
-7---10---10--7----7--7-10--10-10--6----9---9--9--12--12-12--9---9--9-12-12-
-7----7----7--7----7--7--7---7--7--6----6---6--6---9---9--9--9---9--9--9--9-
-7----7----7--7----7--7--7---7--7--6----6---6--6---9---9--9--9---9--9--9--9-
-7----7----7--7----7--7--7---7--7--6----6---6--6---9---9--9--9---9--9--9--9-
-7----7----7--7----7--7--7---7--7--6----6---6--6---9---9--9--9---9--9--9--9-

Repeat Verse for ost-chorus

2nd and 3rd Post-chorus picking figures:

-----------------------------------2-------
-------0--------2-------4------------0-----
-----3---3--------3-------3-----3------3---
-----------------------------------------0-      
------------------------------------------- 
-4-----------4-------4-------4-------------

--------------------------------0-------
------0-------2------4------------4-----
----3---3-------3------3-----3------3---
--------------------------------------0-     
----------------------------------------
-0---------0-------0------0-------------

Outro:

----0---------0---------0---------0------
--------4----------4---------4---------4-
-----------------------------------------
-----------------------------------------
-4----4----4----4----4----4----4----4----
-4----4----4----4----4----4----4----4----

---------0---------0---------0---------0-
---4----------4---------4---------4------
-----------------------------------------
----------------------------------------- 
-0----0----0----0----0----0----0----0----
-0----0----0----0----0----0----0----0----

After playing outro a few times, rest for 1/2 measure
and play this:

----0-----------------------0------
---------4-----------------------4-
---------0-----------------------0-
-----------------------------------
-4----4------------------0----0----
-4----4------------------0----0----

------------------------------
---------9^11-------9^11^9----
-7^8^7----------------------8-
------------------------------
------------------------------
------------------------------

Lyrics to 'Over Now' (not sure on a few):

Yeah, its over now
But I can breathe somehow.
When it's all worn out
I'd rather go without.

You know it's been on my mind,
Could you stand right here
Look me straight in the eye and say
That it's over now?

We pay our debts sometime.

Well it's over now
Yet I can see somehow.
When it's all gone wrong
It's hard to be so strong.

We pay our debts sometime.

Yeah, it's over now
I seem alive some how.
When it's out of sight
Just wait and do your time.

You know it's been on my mind,
Could i stand  right here
Look myself in the eye and say
That it's over now?

We pay our debts sometime.

*********************************************
*Tab done by Jeremy at 5403208@mail-1.ns.net*
*********************************************