Artist: Mumford and Sons , Title: Roll Away Your Stone - DADF#AD

D
A
D
F#
A
D

Mumford and Sons - Roll Away Your Stone

Roll Away Your Stone - Corrected version.

The song is in Open D with a capo on second.

                        Open D high to low= d,  a,  f sharp, D, A, D

d |--0h2h4----4-4/5--5p4p0----0h2h4-----2-2----------|
a |--------0-----------------------0h2h5--------------|
F#|---------------------------------------------------|
D |---------------------------------------------------|
A |--------------------------------0----0-0-----------|
D |--0-----0--0-0----0--------0-----------------------|


|--0h2h4----4-4/5--5/4p0----0h2h4-----2-------------|
|--------0-----------------------0h2h5--5--5--------|
|---------------------------------------------------|
|---------------------------------------------------|
|--------------------------------0----0-------------|
|--0-----4----4/5--5/4p0----0-----------0--0--------|

|--0h2h4----4-4/5--5p4p0----0h2h4-----2-2-----------|
|--------0-----------------------0h2h5--------------|
|---------------------------------------------------|
|---------------------------------------------------|
|--------------------------------0----0-0-----------|
|--0-----0--0-0----0--------0-----------------------|

|--0h2h4----4-4/5--5/4p0----0h2h4-----2-------------|
|--------0-----------------------0h2h5--5--5--------|
|------------------------------------------0--------|
|------------------------------------------0--------|
|--------------------------------0----0----0--------|
|--0-----4----4/5--5/4p0----0-----------0--0--------|


I couldnt really be bothered writing out the picking pattern it should be easy enough to 
out not too complicated so ill just write out the chords


|---------------------------------------------------|
|---------------------------------------------------|
|--0-----------5-----------------0--------0---0----| x3
|--0-----------5-----------------0--------0h2p0----|
|--0-----------5-----------------0--------0h2p0----|
|--0-----------5-----------------0--------0---0----|

Roll away your Stone ill roll away mine.

|---------------------------------------------------|
|---------------------------------------------------|
|-----------------------------------0---------------|
|--7-----------5--------------------0---------------|
|--7-----------5--------------------0---------------|
|--7-----------5--------------------0---------------|
 Im afraid of what I will discover in side


|---------------------------------------------------|
|---------------------------------------------------|
|--0-----------5-----------------0--------0-5-0-----| x3
|--0-----------5-----------------0--------0-5-0-----|
|--0-----------5-----------------0--------0-5-0-----|
|--0-----------5-----------------0--------0-5-0-----|

Chorus:

|---------------------------------------------------|
|---------------------------------------------------|
|--9-----------5--------7--------0--------0---0----| x2
|--9-----------5--------7--------0--------0h2p0----|
|--9-----------5--------7--------0--------0h2p0----|
|--9-----------5--------7--------0--------0---0----|

Darkness is a harsh term don’t you think

Bridge:
    NH                 NH                             NH
|--5-----------7-----------------12-----------------|
|--5-----------7-----------------12-----------------|
|--5-----------7-----------------12-----0-0---0-----|
|--5-----------7-----------------12-----0-0h2p0-----|
|--5-----------7-----------------12-----0-0h2p0-----|
|--5-----------7-----------------12-----0-0h--0-----|


    NH                   NH                            NH
|--12-----------7-----------------5-----------------|
|--12-----------7-----------------5-----------------|
|--12-----------7-----------------5-----0-0---0-----|
|--12-----------7-----------------5-----0-0h2p0-----|
|--12-----------7-----------------5-----0-0h2p0-----|
|--12-----------7-----------------5-----0-0h--0-----|


     NH===========================>NH
|--<12><12><12><12><12><12><12><12><12>-----|
|--<12><12><12><12><12><12><12><12><12>-----|
|--<12><12><12><12><12><12><12><12><12>-----|
|--<12><12><12><12><12><12><12><12><12>-----|
|--<12><12><12><12><12><12><12><12><12>-----|
|--<12><12><12><12><12><12><12><12><12>-----|

Outro:

|---------------------------------------------------|
|---------------------------------------------------|
|---0----------------4--5---------------------------|
|---0----------------4--5---------------------------|
|---0----------------4--5---------------------------|
|---0----------------4--5---------------------------|


The rest should be simple enough to work out:)