Artist: Bon Iver & St. Vincent, Title: Roslyn - EBDF#DF#

E
B
D
F#
D
F#

Bon Iver & St. Vincent - Roslyn

INTRO //

                       [      x3  ]                         [        x4 ]
F#:--x--xxx--x--xxx------0---0-0-0------0--0--0--0--0--0-----0---0-0-0-----|
D :--x--xxx--x--xxx------0---0-0-0------0--0--0--0--0--0-----0---0-0-0-----|
F#:--x--xxx--x--xxx------8---8-8-8------10-10-10-10-10-10----8---8-8-8-----|
D :--x--xxx--x--xxx------9---9-9-9------11-11-11-11-11-11----9---9-9-9-----|
B :--x--xxx--x--xxx------7---7-7-7------10-10-10-10-10-10----7---7-7-7-----|
E :--x--xxx--x--xxx----(10)------------(12)----------------(10)------------|




                [    x3  ]
F#:--0--0-0-0----0--0-0-0----000000----0--0-0-0----0--0-0-0---------------|
D :--0--0-0-0----0--0-0-0----000000----0--0-0-0----0--0-0-0---------------|
F#:--0--0-0-0----1--1-1-1----111111----0--0-0-0----1--1-1-1---------------|
D :--0--0-0-0----2--2-2-2----222222----0--0-0-0----2--2-2-2---------------|
B :--0--0-0-0----0--0-0-0----000000----0--0-0-0----0--0-0-0---------------|
E :--x--x-x-x----x--x-x-x----xxxxxx----x--x-x-x----x--x-x-x---------------|




F#:----0----0--0--0---0---0--0---|
D :----0----0--0--0---0---0--0---|
F#:----1----1--0--1--1/3--1--0---|
D :----2----2--2--2--2/4--2--0---|
B :----0----0--0--0---0---0--0---|
E :----x----x--x--x---x---x--x---|