Artist: , Title: secrets - DADF#AD

Card image

D

Card image

A

Card image

D

Card image

F#

Card image

A

Card image

D

- secrets

http://www.youtube.com/watch?v=E9U_qUToO3E&lc=kKj2VDy-kKjyd_eGbto7157Gczggj3iuopTPe-x2Asw
Guitar tuning: D-A-D-F#-a-d
Intro

d |--------------------------------------
a |----0-0------0-0------0-0------0-0----
F#|---0-0-0-0--0-0-0-0--0-0-0-0--0-0-0-0-
G |--------------------------------------
A |--5-----5--5-----5--4-----4--4-----4--
D |--------------------------------------

d |--------------------------------------
a |----2-2------2-2------2-2------2-2----
F#|---0-0-0-0--0-0-0-0-------------------
G |---------------------5-5-5-5--5-5-5-5-
A |--2-----2--2-----2--------------------
D |--------------------5-----5--5-----5--

Verse 1

d |--------------------------------------------------
a |--0-0-0-0-0---0-----0-0-0-0-0-0--0-----0-0-0-0-0--
F#|-0---------0-0-0-0-0-0---------0--0-0-0-0--------- 
G |--------------------------------2-----------------
A |------------------------------4----4-4---4--------
D |----------0-----0-0---0---------------------------

d |-----------------------------------------
a |--0---2-----2-0-0-0-0-0-------2-2--------
F#|---0-0-0-0-0-0---------------------------
G |-----------------------0-0-5-5-5-5-5-----
A |--2-----2-2---2--------------------------
D |----------------------5---5-5-----5------

d |-----0-2--0--------------------------
a |--0-2---s4---0-0-0-2-4-4-4-4--0-0----
F#|------------0-0-0------------0-0-0---
G |-------------------------------------
A |---------------------4------4--------
D |-----0-----0-------------------------

d |-----0---------------0---------0--0-2-0-2--
a |--0-2-2-2-2-2-2h4-2h4-2-2h4-2h4-2----------
F#|-------------------------------------------
G |-------------------------------------------
A |-----2--------2----------------------------
D |------------------------5---------5--------


Chorus

d |--4-4s7-4-----0-2-0-2-4-7-4-------------7—-----0-0-0-0-5-4--------
a |--------0--0--------------0--0-5-7-5-7-9-9----------------7-5-5-0-
F#|--------0-0-0-------------0-0-0----------0---0--------------------
G |-----------------------------------------0--0-0-------------------
A |----------------------4----4---4----------------------------------
D |--0------0----0------------------------9---9---9-------5----------

d |----4s7-4-----0-2-0-2-4-7-4-------------7—-----0-0-0-0-5-4--------
a |--------0--0--------------0--0-5-7-5-7-9-9-------------0--7-5-5-0-
F#|--------0-0-0-------------0-0-0----------0---0---------0--0-------
G |-----------------------------------------0--0-0-------------------
A |----------------------4----4---4----------------------------------
D |--0------0----0------------------------9---9---9-------5--5-------


Verse 2

d |---0-0----0-0-0-0-0------------------------------------------
a |---0-0--0----------4-4--0--4-4-4-4-4-2-2--2-2-2-2-2-2-2-2----
F#|-------0-0-------------0-0---------------0-0-----------------
G |--0-----------------------------------------------------5----
A |--0---------------4---4----4-------2----2---2----------------
D |--0---0---------------------------------------------5---5----


d |--0-0-0-0-0-0-0-0-0-0-0-0-0-0-0-0-0-0-2-0-0-0-0-0-0-2-0--0-2-0-2--
a |--0--0-0-----0-0---------------0-0------0-------------0-----------
F#|--0---------------------------------------------------0-----------
G |--------------------------------------------------5---------------
A |-----------------4-----------4------2-----------------------------
D |--0--------0--------------------------------------5------5--------


Chorus

d |--4-4s7-4-----0-2-0-2-4-7-4-------------7—-----0-0-0-0-5-4--------
a |--------0--0--------------0--0-5-7-5-7-9-9----------------7-5-5-0-
F#|--------0-0-0-------------0-0-0----------0---0--------------------
G |-----------------------------------------0--0-0-------------------
A |----------------------4----4---4----------------------------------
D |--0------0----0------------------------9---9---9-------5----------



d |----4s7-4-----0-2-0-2-4-7-4-------------7—-----0-0-0-0-5-4--------
a |--------0--0--------------0--0-5-7-5-7-9-9-------------0--7-5-5-0-
F#|--------0-0-0-------------0-0-0----------0---0---------0--0-------
G |-----------------------------------------0--0-0-------------------
A |----------------------4----4---4----------------------------------
D |--0------0----0------------------------9---9---9-------5--5-------

Repeat Intro

Bridge

d |--0-0-0-0-0-0-0-2-----------0-----------0-0-0-0-0-2-2-0-0-2-0-2---
a |--0--------------4-4-4-2-2-4-2-2-2-0-2-4--------------------------
F#|--0---------------------------------------------------------------
G |--0---------------------------------------------------------------
A |--0-------------4-----------2-------------------------------------
D |--0-------------------------------------5---------------5---------


Chorus

d |--4-4s7-4-----0-2-0-2-4-7-4-------------7—-----0-0-0-0-5-4--------
a |--------0--0--------------0--0-5-7-5-7-9-9----------------7-5-5-0-
F#|--------0-0-0-------------0-0-0----------0---0--------------------
G |-----------------------------------------0--0-0-------------------
A |----------------------4----4---4----------------------------------
D |--0------0----0------------------------9---9---9-------5----------


d |----4s7-4-----0-2-0-2-4-7-4-------------7—-----0-0-0-0-5-4--------
a |--------0--0--------------0--0-5-7-5-7-9-9-------------0--7-5-5-0-
F#|--------0-0-0-------------0-0-0----------0---0---------0--0-------
G |-----------------------------------------0--0-0-------------------
A |----------------------4----4---4----------------------------------
D |--0------0----0------------------------9---9---9-------5--5-------


Repeat Chorus
Repeat Intro (Strum)