Artist: Transit, Title: Skipping Stone - EG#BF#BD#

Card image

E

Card image

G#

Card image

B

Card image

F#

Card image

B

Card image

D#

Transit - Skipping Stone

CAPO AT 2ND FRET

Intro/Verse: Rhythm

 |---0~--0~--0~--0~--0~--0~--0000-000-|
 |---0~--0~--0~--0~--0~--0~--0000-000-|
 |---0~--0~--0~--0~--0~--0~--0000-000-|   x2
 |---4~--0~--7~--2~--4~--0~--7777-222-|
 |---0~--3~--0~--0~--0~--3~--0000-000-|
 |---4~--0~--7~--2~--4~--0~--7777-222-|

Intro/Verse: Lead
 |----3-0--0---0---|
 |------------0----|
 |--5----5---5-----|   x8
 |-----------------|
 |-----------------|
 |-----------------|


Pre chorus: "Wherever you go,"
                           (1st ending)               (2nd ending)
 |-----0000-----0000-|-----0000-----0000--|-0-0-0000-0-0-0000-------------|
 |-----0000-----0000-|-----0000-----0000--|-0-0-0000-0-0-0000-------------|
 |-----0000-----0000-|-----0000-----0000--|-0-0-0000-0-0-0000-------------|
 |-----0000-----0000-|-----7777-----4444--|-2-2-2222-2-2-2222-------------|
 |-----3333-----3333-|-----0000-----0000--|-0-0-0000-0-0-0000-------------|
 |-0-0-0000-0-0-0000-|-6-6-6666-4-4-4444--|-2-2-2222-4-4-4444-------------|
   * *      * *        * *      * *

Chorus: "Every memory..."

 Rhythm:
 |-0-0-00-0-0-0-00-0-0-0-00-0-0-000-0--0-0----|
 |-0-0-00-0-0-0-00-0-0-0-00-0-0-000-0--0-0----|
 |-0-0-00-0-0-0-00-0-0-0-00-0-0-000-0--0-0----|
 |-0-0-00-0-4-4-44-4-2-2-22-2-7-000-0--0-0----|
 |-0-0-00-0-0-0-00-0-0-0-00-0-0-000-0--0-0----|
 |-0-0-00-0-4-4-44-4-2-2-22-2-7-999s11s9s7----|

 Lead:
   (Just the chords for the first part, not fully tabbed out)
 |------------|-0-0-0-0-0-0-0|-0--0-0-0-0-0-0-0-|--0--0-0-0-0-0-0-0-0-----|
 |------------|-0-0-0-0-0-0-0|-0--0-0-0-0-0-0-0-|--0--0-0-0-0-0-0-0-0-----|
 |-5-/-7-/-12-|-5-5-7-9-9-7-7|10-10-9-9-7-7-5-5-|-12-12-10-10-9-9-7-7-----|
 |-0-/-0-/--0-|--------------|------------------|-------------------------|
 |-3-/-5-/-10-|--------------|------------------|-------------------------|
 |------------|--------------|------------------|-------------------------|

Bridge: "Maybe that's the only..."

 |-------------------|---|--------|
 |-------------------|---|--------|
 |---------------0~--|-0~|--------|
 |-------0~--5s7---0~|---|--------| x2
 |---5s7---7---------|---|-0~-----|
 |-0~----------------|---|--------|


 |-0-0-0-00-0-0-0-0-00-0|
 |-0-0-0-00-0-0-0-0-00-0|
 |-0-0-0-00-0-0-0-0-00-0|
 |-2-2-2-22-2-4-4-4-44-4|
 |-0-0-0-00-0-0-0-0-00-0|
 |-2-2-2-22-2-4-4-4-44-4|

 Song Order:
 Intro/Verse
 Pre Chorus
 Chorus
 Intro/Verse
 Pre Chorus
 Chorus
 Bridge
 Pre Chorus
 Chorus
 Outro (Intro/Verse)

SOURCE: http://tabs.ultimate-guitar.com/t/transit/skipping_stone_tab.htm