Artist: Pavement, Title: Stereo - DADABE

Card image

D

Card image

A

Card image

D

Card image

A

Card image

B

Card image

E

Pavement - Stereo

I'm pretty sure this is right. it's pavement so it's a little sloppy.
  Enjoy.

  INTRO:
  G|---------------------------------|
  D|-------------5-- 44400----77744--|
  A|------7----4---------------------|
  E|----5----------------------------|

  VERSE:
  G|---------------------------------|
  D|-------5-------------------------|
  A|---7-4---------------------------|
  E|-5-------3---44400----77744------|

  PRE-CHORUS: (Hi-ho silver ride...)
  G|---------------------------------|
  D|-------5-------------------------|
  A|---7-4--------5------------------|
  E|-5-------3-----------------------|

  CHORUS:
  G|---------------------------------|
  D|---------------------------------|
  A|--------------------------5--5---|
  E|-55--55--55--55--33333333--------|

The bass drops out in the 2nd verse after, "Well you're my fact checkin' cuz." The bass 
back in shortly after to finish the verse. Typical pavement, but not too difiicult. I 
print the lyrics, but seeing as Malkmus changes them everytime he sings it doesn't seem
worth the trouble. If you really need them i'm sure you can find 'em somewhere. I think
they printed on the album sleeve.