Artist: The Tallest Man On Earth, Title: Tangle in This Tramples Wheat - EADGBD

E
A
D
G
B
D

The Tallest Man On Earth - Tangle in This Tramples Wheat

Intro:
D|------------------0-----|
B|---------0---0h1--------|
G|----0---------------0---|
D|----0-----0-----2-----2-| x2
A|------------------------|
E|-3-----3-----3-----3----|

D|-------------0----------------------------------|
B|---------0-----------0------1p0------1p0-----0--|
G|----2------------2---------------2-------2------|
D|----0-----0-----0-----0-----0-----0-----0-----0-|
A|------------------------------------------------|
E|-2-----2-----2-----2-----2-----2-----2-----2----|

D|---------0---2p0---------------------0----------|
B|----1------------1---0-----------0-----------0--|
G|----------------------------2------------2------|
D|----2-----2-----2-----0-----0-----0-----0-----0-| x2
A|-0-----0-----0-----0----------------------------|
E|-------------------------2-----2-----2-----2----|


Verse:
(Been so many days...)
D|------------------------------------------------|
B|---------0---1-------1---0-------0-----------0--|
G|----0------------0-----------0----------0-------|
D|----0-----0-----2-----2-----0-----0-----2-----2-|
A|------------------------------------------------|
E|-3-----3-----3-----3-----3-----3-----0-----0----|
                                        (where I get frightened)
D|-------------0----------------------------------|
B|---------0-----------0------1p0------1p0-----0--|
G|----2------------2---------------2-------2------|
D|----0-----0-----0-----0-----0-----0-----0-----0-|
A|------------------------------------------------|
E|-2-----2-----2-----2-----2-----2-----2-----2----|

D|-------------------------------------0----------|
B|---------1-----------0-----------0-----------0--|
G|----2-----(2)---0------(0)--2------------2------|
D|----2-----2-----0-----0-----0-----0-----0-----0-|
A|-0-----0----------------------------------------|
E|-------------3-----3-----2-----2-----2-----2----|
(...part)
D|------------------0------------------0----------|
B|---------1---0h1-----1-----------0-----------0--|
G|----0-----------------------2------------2------|
D|----2-----2-----2-----2-----0-----0-----0-----0-|
A|-3-----3-----3-----3----------------------------|
E|-------------------------2-----2-----2-----2----|


Chorus:
D|-------------0----------------------------------|
B|---------1-----------0-----------0-----------0--|
G|----0------------0----------2-----------0-------|
D|----2-----2-----0-----0-----0-----0-----2-----2-|
A|-3-----3----------------------------------------|
E|-------------3-----3-----2-----2-----0-----0----|

D|-------------0-----------------------0----------|
B|---------1-----------0-----------0-----------0--|
G|----0------------0----------2------------2------|
D|----2-----2-----0-----0-----0-----0-----0-----0-|
A|-3-----3----------------------------------------|
E|-------------3-----3-----2-----2-----2-----2----|

D|-------------0----------------------------------|
B|---------1-----------0-----------0-----------0--|
G|----0------------0----------2-----------0-------|
D|----2-----2-----0-----0-----0-----0-----2-----2-|
A|-3-----3----------------------------------------|
E|-------------3-----3-----2-----2-----0-----0----|

D|-------------0-----------------------0----------|
B|---------1-----------0-----------0-----------0--|
G|----2------------0----------2------------2------|
D|----0-----2-----0-----0-----0-----0-----0-----0-|
A|-3-----3----------------------------------------|
E|-------------3-----3-----2-----2-----2-----2----|

D|-----------------------------------------0------|
B|---------0---1p0-----0-----------0---1p0--------|
G|----2------------2----------2----------------0--|
D|----0-----0-----0-----0-----0-----2-----0-----0-|
A|------------------------------------------------|
E|-2-----2-----2-----2-----2-----2-----2-----2----|

D|-------------2----------|
B|---------0-----------0--|
G|----0------------2------|
D|----2-----2-----0-----0-|
A|-3-----3----------------|
E|-------------2-----2----|


Outro:
D|---------2---0-------------------0--------0-----|
B|------------------2/3-0-----1--------1-------1--|
G|----1-------------------------------------------|
D|----2-----2-----0-----------2-----2-----2-----2-|
A|-------------------------3-----3-----3-----3----|
E|-0-----0-----0----------------------------------|

D|----0-------------------------------------0-----|
B|--------1----0---1p0-------------0---0h1--------|
G|--------------------0-------0---------------0---|
D|----0-----0-----0-----------0-----0-----2-----2-|
A|------------------------------------------------|
E|-2-----2-----2-----------3-----3-----3-----3----|

   [3]
D|----0---------|
B|------0-------|
G|---2-2------0-|
D|--0---------0-|
A|------------x-|
E|-2----------3-|