Artist: Ben Howard, Title: The Fear - CGCGGC

Card image

C

Card image

G

Card image

C

Card image

G

Card image

G

Card image

C

Ben Howard - The Fear

Capo 3rd fret
-------------------------------------------------------------------------------
                             The Fear - Ben Howard
-------------------------------------------------------------------------------
Tabbed by: Scott:)

Tuning: CGCGGC
Capo 3rd Fret
?This is the live, not studio, version.

Intro

C|-----------------------------------------------------------------------------|
G|-----------------------------------------------------------------------------|
G|---4--2--4--2--2h0---4--2--4--2--2h0---4--2--4--2--2h0---4--2----------------|
C|--------------------------------------------------------------------2h4-4h2--|
G|-2--2--2--2--2-----2--2--2--2--2-----0--0--0--0--0-----0--0------2h4-------0-|
C|--------------------------------------------------------------2h4------------|

Verse (x2)
C|---------------------------------------------------------------2-----------|
G|---------------------------------------------------------------------------|
G|---4--2--4--2--2h0---4--2--4--2--2h0---4--2--4--2--2h0---4--2--2--4--2h0---|
C|---------------------------------------------------------------------------|
G|-2--2--2--2--2-----2--2--2--2--2-----0--0--0--0--0-----0--0--0--0--0-------|
C|---------------------------------------------------------------------------|
Mama, cold hearted child, tell me how you feel.
(Mama, cold hearted child, tell me where it all falls.)

C|-----------------------------------------------------------------------------|
G|-----------------------------------------------------------------------------|
G|---4--2--4--2--2h0---4--2--4--2--2h0---4--2--4--2--2h0---4--2----------------|
C|--------------------------------------------------------------------2h4------|
G|-2--2--2--2--2-----2--2--2--2--2-----0--0--0--0--0-----0--0------2h4---4h2h0-|
C|--------------------------------------------------------------2h4------------|
Just a blade in the grass, spoke unto the wheel
(All the luster of your bones, those arms that held you strong)

Chorus
C|-------0------0-----|       |------------------|
G|----------------0---|       |------------------|
G|---7-------7------7-|       |---4---4---2---0--|
C|---0-------0------0-|       |---4---4---2---0--|
G|-5---5---5---5----5-|       |------------------|
C|--------------------| x2    |-4---4---2---0----|
I've been worried           that my time is a little unclear
(I've been worryin')             (that I'm losing the ones I hold dear)
C|----------------------------------------------------| |----------------------------|
G|----------------------------------------------------| |9-9-7-9-7-7h0-2-2-4-7-4-2h0-|
G|-4-4-4-4-4-4-4-4--2-2-2-2-2-2-2-2--0-0-0-0-0-0-0-0--| |0-0-0-0-0-0-0-0-0-0-0-0-0-0-|
C|-4-4-4-4-4-4-4-4--2-2-2-2-2-2-2-2--0-0-0-0-0-0-0-0--| |----------------------------|
G|----------------------------------------------------| |----------------------------|
C|4-4-4-4-4-4-4-4--2-2-2-2-2-2-2-2--0-0-0-0-0-0-0-0---| |0-0-0-0-0-0-0-0-0-0-0-0-0-0-|x2
I've been worryin' that we all, live our lives, in the confines of fear   (end 
note is dead notes 2nd time)

Verse
Mama, cold hearted child, tell me how you feel
Just a blade in the grass, spoke unto the wheel
Mama, cold hearted child, tell me where it's all gone
All the luster of your bones, those arms that held you strong

Chorus
I've been worryin' that my time is a little unclear
I've been worryin' that I'm losing the ones I hold dear
C|---------------------------------------------------------------------| 
G|---------------------------------------------------------------------| 
G|--4-4-4-4-4-4-4-4--2-2-2-2-2-2-2-2--0-0-0-0-0-0-0-0-0-0-0-0-0-0-0-0--|
C|--4-4-4-4-4-4-4-4--2-2-2-2-2-2-2-2--0-0-0-0-0-0-0-0-0-0-0-0-0-0-0-0--|
G|---------------------------------------------------------------------|
C|-4-4-4-4-4-4-4-4--2-2-2-2-2-2-2-2--0-0-0-0-0-0-0-0-0-0-0-0-0-0-0-0---|
I've been worryin' that we all, live our lives, in the confines of fear  

C|----------------------------|    |------------------------------|
G|9-9-7-9-7-7h0-2-2-4-7-4-2h0-|    |------------------------------|
G|0-0-0-0-0-0-0-0-0-0-0-0-0-0-|    |------------------------------|
C|----------------------------|    |------------------------------|
G|----------------------------|    |9-9-7-9-7-7h0-2-2-(4-7-4-2h0-)|   (2-2-4-4-0)
C|0-0-0-0-0-0-0-0-0-0-0-0-0-0-|x2  |0-0-0-0-0-0-0-0-0-(0-0-0-0-0-)|x2 (0-0-0-0-0)

Pm--------------------------------------------------------------------
C|---------------------------------------------------------------------|
G|---------------------------------------------------------------------|
G|-4-4-4-4-4-4-4-4--7-7-7-7-7-7-7-7------------------------------------|
C|-4-4-4-4-4-4-4-4--7-7-7-7-7-7-7-7--7-7-7-7-7-7-0-0--7-7-7-7-7-7-0-0--|
G|-----------------------------------5-5-5-4-4-4-0-0--5-5-5-4-4-4-0-0--|
C|-4-4-4-4-4-4-4-4--7-7-7-7-7-7-7-7------------------------------------| x8
Oh I will become what I deserve(x4)
I've been worryin', I've been worryin',
I will become what I deserve

Pm----------------------------------
C|---------------------------------------------------------------------|
G|---------------------------------------------------------------------|
G|-4-4-4-4-4-4-4-4--7-7-7-7-7-7-7-7------------------------------------|
C|-4-4-4-4-4-4-4-4--7-7-7-7-7-7-7-7--7-7-7-7-7-7-7-7--7-7-7-7-7-7-7----|
G|-----------------------------------5-5-5-5-5-5-5-5--5-5-5-5-5-5-5----|
C|-4-4-4-4-4-4-4-4--7-7-7-7-7-7-7-7------------------------------------|
I've been worryin', I've been worryin’

C|-------|
G|-------|
G|-4-2-0-|
C|-4-2-0-| (strum)
G|-------|
C|-4-2-0-|
That my time is a little unclear
I've been worryin', I've been worryin'
That I'm losing the ones I hold dear
I've been worryin', I've been worryin'

C|-------|
G|-------|
G|-4-2-0-|
C|-4-2-0-| (strum)
G|-4-2-0-|
C|-4-2-0-|

That we all, live our lives, in the confines of fear. In the confines of fear.
C|---------------------------------|
G|------------------------------12-|
G|9-9-9-7-9-7-0-2-2-4-4-7-7--0--0--|
C|------------------------------12-|
G|9-9-9-7-9-7-0-2-2-4-4-7-7--0--12-|
C|0-0-0-0-0-0-0-0-0-0-0-0-0--0-----|

************************************

| /   slide up
| \   slide down
| h   hammer-on
| p   pull-off
| ~   vibrato
| +   harmonic
| x   Mute note
| b   Bend
| pb  Pre-bend
| br  Bend release
| pbr Pre-bend release
| brb Bend release bend

************************************