Artist: Nick Drake, Title: The Thoughts of Mary Jane - EADF#BE

E
A
D
F#
B
E

Nick Drake - The Thoughts of Mary Jane

THE THOUGHTS OF MARY JANE

Tuning EADF#BE capo 6



Intro and links between verses:

|------0----0----|-----0-0------0-|
|---2----2---2---|---3--3----0----|
|--0-0-----0--0--|--0-0---0-0-2---|
|-2---2-2-2----2-|-0-------0---0-0|
|0--0--0-0--0---0|2--2--2-------2-|
|----------------|--------0---0---|

verses:

|------0----0----|------0-------0-|
|---2----2---2---|---3-------0----|
|--0-0-----0--0--|--0-0-----0-2---|
|-2---2-2-2----2-|-0---0-0-0---0-0|
|0--0--0-0--0---0|2--2--2-------2-|
|----------------|--------0---0---|


"where she's been..."

|-----------0----|-----------0----|-------------2--|--------------0-|
|---2----2---2---|---2----2---2---|---2-------0--0-|---3-------0----|
|--2-2-----2--2--|--0-0-----0--0--|--0-0-----0-0---|--0-0-----0-2---|
|-2---2-2-2----2-|-2---2-2-2----2-|-1---1-1-1-----1|-0---0-0-0---0-0|
|0--0--0-0------0|0--0--0-0------0|0--0--0-0--0--0-|2--2--2-------2-|
|----------------|----------------|----------------|--------0---0---|


this is the Time Of No Reply version; the Five Leaves Left version
is slightly simplified, but has some extra bits:

|------0-------0-|
|---2-------0----|
|--0-0-----1-1---|  
|-2---2-2-2---2-2|
|0--0--0-0--0--0-|
|----------------|

replaces one link between verses, and also begins the fade-out,
which continues:

|----------------|----------------|
|--2--2--2-------|--0--0--0-------|
|--0--0--0-------|--1--1--1-------|
|--2--2--2--2-2-2|--2--2--2--2-2-2|
|0-0-0-0-0-0-0-0-|0-0-0-0-0-0-0-0-|
|----------------|----------------|


Tabbed by Chris Healey