Artist: Ewan Dobson, Title: Time - CGCGCE

Card image

C

Card image

G

Card image

C

Card image

G

Card image

C

Card image

E

Ewan Dobson - Time

Intro:
    PM-------------------------------------------------------------------|
E|-----------------------------------------------------------------------|
C|--4--6--7-6-4-7-6-4-7-6-4-7-4-6-0--0-0-4-0-0-0-(b9)-(b9)(b9)(b9)7-6-7--|
G|-----------------------------------------------------------------------|
C|-----------------------------------------------------------------------|
G|-----------------------------------------------------------------------|
C|-----------------------------------------------------------------------|
    PM--------------------------------------------------------|
E|-----------------------------------------------------------------------|
C|--4--6--7-6-4-7-6-4-7-6-4-7-4-6-0--0-0-4-0-0-0-2--2-2-6-2-2-2----------|
G|-----------------------------------------------------------------------|
C|-----------------------------------------------------------------------|
G|-----------------------------------------------------------------------|
C|-----------------------------------------------------------------------|
                                  PM-----------|
E|-----------------------------------------------------------------------|
C|-----------------------------------------------------------------------|
G|-----------------------------------------------------------------------|
C|--4--6--7-6-4-7-6-4-7-6-4-7-4-6-0--0-0-4-0-0-0-(b9)-(b9)(b9)(b9)7-6-7--|
G|-----------------------------------------------------------------------|
C|-----------------------------------------------------------------------|
                                  PM--------------------------|
E|-----------------------------------------------------------------------|
C|-----------------------------------------------------------------------|
G|-----------------------------------------------------------------------|
C|--4--6--7-6-4-7-6-4-7-6-4-7-4-6-0--0-0-4-0-0-0-2--2-2-6-2-2-2----------|
G|-----------------------------------------------------------------------|
C|-----------------------------------------------------------------------|