Artist: Nick Drake, Title: Time of No Reply - BEBEBE

B
E
B
E
B
E

Nick Drake - Time of No Reply

TIME OF NO REPLY
     
Tuning (bottom first): BEBEBE capo 4th fret
     


There's only one difficult fingering in this, for which I've indicated 
which finger (index, middle, ring, little) might go where.
     
Riff:
     
|-----0--|-----0--|---5----|----<12>---| 
|---0--0-|---7--7-|----5---|---0<12>---| 
|--0-0---|--9-9--0|--5--5--|--0-----| 
|-9-----9|-7------|-5----5-|-0------| 
|7--7--7-|6--6--6-|5--5---5|0-------| 
|--------|--------|--------|--------|
         (imlr)                 (harmonic)
     
Verse:
     
|------0-|--------|    |------0-|------0-|--------|--------| 
|---0----|---0----|    |---0----|---0----|---0---0|---5---0| 
|--0-----|--0-2---| x2 |--0-----|--0-----|--0---9-|--5---0-| 
|-9---7-7|-5---0-0|    |-A---9-9|-A---9--|-9---7--|-5---0--| 
|7---5---|4---2---|    |9---7---|9---7---|7---6---|5---0---| 
|--------|------0-|    |--------|--------|--------|--------|
                        (for A read 10)
Bridge bit:
     
|--------|-----0--|    |--------|--------| 
|---0----|---0--0-|    |---0----|---0----| 
|--0-0---|--0-0---| x3 |--0-0---|--0-2---| 
|-5---5-5|-3-----3|    |-1---1-1|-0------| 
|7--7--7-|5--5--5-|    |3--3--3-|2-------| 
|--------|--------|    |--------|----0---|
     
Little link:
     
|--------|--------|
|---0---7|---5--0-|
|--0---9-|--5---0-| (a few notes missed 2nd time it's played) 
|-9---7--|-5---0--|
|7---6---|5---0---|
|--------|--------|
     
     
Tabbed by Chris Healey

(thanks to Olle Broksten for pointing out a couple of missing bass notes)