Artist: Boys Like Girls Ft. Taylor Swift, Title: Two Is Better Than One - CGCGCE

C
G
C
G
C
E

Boys Like Girls Ft. Taylor Swift - Two Is Better Than One

Intro:
C
E|----------------------------------------------------|
C|--------0---------0---------0--------0--------------|
G|------0------0----------0--------0------------------|
C|----7----------7----------7--------7----------------|
G|----------------------------------------------------|
C|--0------(0)--------(0)-------(0)-------------------|

Verse:
C
E|----------------------------------------------------|
C|--------0---------0---------0--------0--------------|
G|------0------0----------0--------0------------------|
C|----7----------7----------7--------7----------------|
G|----------------------------------------------------|
C|--0------(0)--------(0)-------(0)-------------------|

C
I remember what you wore on the first day

Am
E|----------------------------------------------------|
C|--------0---------0-----------0--------0------------|
G|------0-------0-----------0-------0-----------------|
C|----11----------11----------11------11--------------|
G|----------------------------------------------------|
C|--9------(9)--------(9)-------(9)-------------------|

Am
You came into my life and i thought hey
F G
E|----------------------------------------------------|
C|--------0---------0---------0---------0-------------|
G|------0------0------------0-------0-----------------|
C|----7----------7--------7-----------7---------------|
G|----------------------------------------------------|
C|--5------(5)----------7--------(7)------------------|

F G C
You know, this could be somethin'.
C
E|----------------------------------------------------|
C|--------0---------0---------0--------0--------------|
G|------0------0----------0--------0------------------|
C|----7----------7----------7--------7----------------|
G|----------------------------------------------------|
C|--0------(0)--------(0)-------(0)-------------------|

(repeats from beginning of verse)

Chorus:
F
E|----------------------------------------------------|
C|--------0---------0---------0--------0--------------|
G|------0------0----------0--------0------------------|
C|----7----------7----------7--------7----------------|
G|----------------------------------------------------|
C|--5------(5)----------(5)--------(5)----------------|

F
Maybe it's true

G
E|----------------------------------------------------|
C|--------0---------0---------0--------0--------------|
G|------0------0----------0--------0------------------|
C|----7----------7----------7--------7----------------|
G|----------------------------------------------------|
C|--7------(7)----------(7)--------(7)----------------|

G
That I can't live without you

F
E|----------------------------------------------------|
C|--------0---------0---------0--------0--------------|
G|------0------0----------0--------0------------------|
C|----7----------7----------7--------7----------------|
G|----------------------------------------------------|
C|--5------(5)----------(5)--------(5)----------------|

F
Maybe two
G
E|----------------------------------------------------|
C|--------0---------0---------0--------0--------------|
G|------0------0----------0--------0------------------|
C|----7----------7----------7--------7----------------|
G|----------------------------------------------------|
C|--7------(7)----------(7)--------(7)----------------|

G
Is better than one
F
E|----------------------------------------------------|
C|--------0---------0---------0--------0--------------|
G|------0------0----------0--------0------------------|
C|----7----------7----------7--------7----------------|
G|----------------------------------------------------|
C|--5------(5)----------(5)--------(5)----------------|

F
There's so much time
G
E|----------------------------------------------------|
C|--------0---------0---------0--------0--------------|
G|------0------0----------0--------0------------------|
C|----7----------7----------7--------7----------------|
G|----------------------------------------------------|
C|--7------(7)----------(7)--------(7)----------------|

G
To figure out the rest of my life

Am G F
But You've already got me comin' undone

Am G C
I'm thinkin two is better than one

Bridge

F Am F Em
E|--0------0------0-----0-----------------------------|
C|--0------0------0-----0-----------------------------|
G|--0------0------0-----0-----------------------------|
C|--7------11-----7-----2-----------------------------|
G|--5------9------5-----2-----------------------------|
C|--5------9------5-----2-----------------------------|