Artist: Ben Howard, Title: Under the Same Sun - CGCGGC

C
G
C
G
G
C

Ben Howard - Under the Same Sun

-------------------------------------------------------------------------------
                             Under the same sun - Ben Howard
-------------------------------------------------------------------------------
Tabbed by: Waldie

Tuning:CGCGGC  partial capo 5th fret over the last 4 strings only (i.e. CGCG)
Notes: a full tutorial on this can be found at: https://www.youtube.com/watch?v=457z9oROuTc

Tab based off this performance: https://www.youtube.com/watch?v=6KrU1LY-pQU 

Watching will help greatly with the lap tapping technique and the drum parts, the tab is given with 
respect to the open strings and ignores the capo.
SO - Slap open strings, SF - Slap fret, 


[Intro]

  SO             SO               SO             SO
e|0--------------0----------------0---------------0---------------|
B|0--------------0----------------0---------------0---------------|
G|5--------------5----------------9---------------7---------------|
D|5--------------5----------------9---------------7---------------|
A|5--------------5----------------9---------------7---------------|
E|5--------------5----------------9---------------7---------------|x4


[Verse]

 SO SF SO SF SO  SF   SO  SO SF SO SF SO  SF  SO   SO SO   SO SO   SO SO   SO SO   SO   SO 
e|0-------------(12)--0----0-------------(12)--0----0--0----0--0----0--0----0--0----0----0--|
B|0-------------------0----0-------------------0----0--0----0--0----0--0----0--0----0----0--|
G|5-------------------5----5-------------------5----9--9----9--9----9--9----9--9----7----7--|
D|5--7--5--7--5-------5----5--7--5--7--5-------5----9--9----9--9----9--9----9--9----7----7--|
A|5--7--5--7--5-------5----5--7--5--7--5-------5----9--9----9--9----9--9----9--9----7----7--|
E|5--7--5--7--5-------5----5--7--5--7--5-------5----9--9----9--9----9--9----9--9----7----7--| x8


[Chorus]

  SO                         
e|-----------------------------------------------------------|
B|-----------------------------------------------------------|
G|5-------------------------h9--------------h7---------------|
D|5-------------------------h9--------------h7---------------|
A|5-------------------------h9--------------h7---------------|
E|5-------------------------h9--------------h7---------------|
  Will you be there

  SO                                                     SF
e|-------------------------------------------------------(7)--|
B|-------------------------------------------------------(7)--|
G|5-------------------------h9--------------h7----------------|
D|5-------------------------h9--------------h7----------------|
A|5-------------------------h9--------------h7----------------|
E|5-------------------------h9--------------h7-----h12--------| x2
  Will you be there         under the same


[Verse] (x8)


[Chorus 2]

  SO                         
e|-----------------------------------------------------------|
B|-----------------------------------------------------------|
G|5-------------------------h9--------------h7---------------|
D|5-------------------------h9--------------h7---------------|
A|5-------------------------h9--------------h7---------------|
E|5-------------------------h9--------------h7---------------|
  Will you be there

  SO                                                     SF
e|-------------------------------------------------------(7)--|
B|-------------------------------------------------------(7)--|
G|5-------------------------h9--------------h7----------------|
D|5-------------------------h9--------------h7----------------|
A|5-------------------------h9--------------h7----------------|
E|5-------------------------h9--------------h7-----h12--------| (once)
  Will you be there         under the same


  SO   SO SO   SO   SO SO   SO   SO SO   SO   SO SO
e|0----0--0----0----0--0----0----0--0----0----0--0----|
B|0----0--0----0----0--0----0----0--0----0----0--0----|
G|5----5--5----5----5--5----9----9--9----7----7--7----|
D|5----5--5----5----5--5----9----9--9----7----7--7----|
A|5----5--5----5----5--5----9----9--9----7----7--7----|
E|5----5--5----5----5--5----9----9--9----7----7--7----| x8


e|0---0---0---0---0---0---0---0---0---0---0---0---0---|
B|5---0---0---0---0---0---0---0---0---0---0---0---0---|
G|5---5---5---5---5---5---5---9---9---9---7---7---7---|
D|5---5---5---5---5---5---5---9---9---9---7---7---7---|
A|5---5---5---5---5---5---5---9---9---9---7---7---7---|
E|5---5---5---5---5---5---5---9---9---9---7---7---7---| x8 (strum the chords and place guitar in the 
upright positions)


Outro (watch the video to get an idea of the rhythm, the tab below is a very basic idea)


e|12-0--0--0--12-0--0--0--12-0--12-0--0--0--12-0--0--0--12-0--|
B|12-0--0--0--12-0--0--0--12-0--12-0--0--0--12-0--0--0--12-0--|
G|10-10-10-10-10-10-10-10-10-10-10-10-10-10-10-10-10-10-10-10-|
D|5--5--5--5--5--5--5--5--5--5--5--5--5--5--5--5--5--5--5--5--|
A|5--5--5--5--5--5--5--5--5--5--5--5--5--5--5--5--5--5--5--5--|
E|5--5--5--5--5--5--5--5--5--5--5--5--5--5--5--5--5--5--5--5--|

e|0--0--0--0--0--0--0--0--0--0--0--0--|
B|0--0--0--0--0--0--0--0--0--0--0--0--|
G|5--5--10-10-10-10-10-10-10-10-10-10-|
D|14-14-12-12-12-12-11-11-12-12-12-12-|
A|5--5--5--5--5--5--5--5--5--5--5--5--|
E|9--9--9--9--9--9--9--9--9--9--9--9--|x7 (with part above)

e|12-0--0--0--12-0--0--0--12-0--12-0--0--0--12-0--0--0--12-0--|
B|12-0--0--0--12-0--0--0--12-0--12-0--0--0--12-0--0--0--12-0--|
G|10-10-10-10-10-10-10-10-10-10-10-10-10-10-10-10-10-10-10-10-|
D|5--5--5--5--5--5--5--5--5--5--5--5--5--5--5--5--5--5--5--5--|
A|5--5--5--5--5--5--5--5--5--5--5--5--5--5--5--5--5--5--5--5--|
E|5--5--5--5--5--5--5--5--5--5--5--5--5--5--5--5--5--5--5--5--|x1

e|0--0--0--0--0--0--0--0--0--0--0--0--0---0--0--0---0--0--0---0--0--0---0--0--|
B|0--0--0--0--0--0--0--0--0--0--0--0--0---0--0--0---0--0--0---0--0--0---0--0--|
G|5--5--5--5--5--5--5--5--5--5--5--5--5---5--5--5---5--5--5---5--5--5---5--5--|
D|14-14-12-12-12-12-11-11-9--9--9--9--7/9-9--9--7/9-9--9--7/9-9--9--7/9-9--9--|
A|5--5--5--5--5--5--5--5--5--5--5--5--5---5--5--5---5--5--5---5--5--5---5--5--|
E|9--9--9--9--9--9--7--7--7--7--7--7--5---5--5--5---5--5--5---5--5--5---5--5--|x3

e|0--0--0--0--0--0--0--0--0--0--0--0--0--0--0--0--0--0--0--------|
B|0--0--0--0--0--0--0--0--0--0--0--0--0--0--0--0--0--0--0--------|
G|5--5--5--5--5--5--5--5--5--5--5--5--5--5--5--5--5--5--5--------|
D|14-14-12-12-12-12-11-11-11-11-11-11-11-11-11-11-11-11-5--------|
A|5--5--5--5--5--5--5--5--5--5--5--5--5--5--5--5--5--5--5--------|
E|9--9--9--9--9--9--7--7--7--7--7--7--7--7--7--7--7--7--9~-------|



************************************

| /   slide up
| \   slide down
| h   hammer-on
| p   pull-off
| ~   vibrato
| ()   harmonic
| x   Mute note
| b   Bend
| pb  Pre-bend
| br  Bend release
| pbr Pre-bend release
| brb Bend release bend

************************************