Artist: Seasick Steve, Title: Walkin Man - DADF#AD

Card image

D

Card image

A

Card image

D

Card image

F#

Card image

A

Card image

D

Seasick Steve - Walkin Man

Walking Man
by Seasick Steve
Tabbed by Stylaphone

It does sound better to use an actual Slide.

VERSE
|-2/40-0---------|-2/40-0---------|
|----0-0---------|----0-0---------|
|----------------|----------------|x5
|----------0---0-|----------0---0-|
|-------0h2-0h2--|-------0h2-0h2--|
|-0---0----------|-0---0----------|

CHORUS
|-2/40-0---------|------------------|
|----0-0---------|------------------|
|----------------|------------------|
|----------0---0-|-2/4-4/7-3\2p3\2p-|
|-------0h2-0h2--|------------------|
|-0---0----------|------------------|

SMALL SLIDE RIFF
|-2/7-7/9-4\24\2-|
|----------------|
|----------------|
|----------------|
|----------------|
|----------------|