Artist: Angus Stone, Title: Santa Monica Dream

D

A

D

F#

A

D

Angus Stone - Santa Monica Dream

Found on:
Down the Way(2010-03-15)
Life Is Strange(2016-01-22)
Angus & Julia Stone(2015-02-13)
Triple J Live(2011)
iTunes Live from Sydney(2010-10-05)
Mellow Spring Acoustic(2020-04-03)
For You(2011-04-01)
Track of Doom / Warrior of the World(2001)
Tribute to Distemper(2010)
Calming Park 3(2003)
Dutch Steel(2014-11-24)
Warrior of the World
2013-03-20: Going the Way of the Buffalo: Daytrotter Studio, Rock Island, IL, USA(2013-03-20)
The Northern Meeting(2005)
Songs from Le Voir Dit(2013-09-30)
Wooden Chair(2013-07-05)
Broken Brights(2012-11-06)
Angus & Julia Stone – Santa Monica Dream
D A D F# A D
Capo 3rd

Goodbye to my Santa Monica dream
Fifteen kids in the backyard drinking wine
You tell me stories of the sea
And the ones you left behind
Goodbye to the roses on your street
Goodbye to the paintings on your wall
Goodbye to the children we'll never meet
And the ones we left behind
And the ones we left behind

I'm somewhere, you're somewhere
I'm nowhere, you're nowhere
You're somewhere, you're somewhere
I could go there but I don't

Rob's in the kitchen making pizza
Somewhere down in Battery Park
I'm singing songs about the future
Wondering where you are
I could call you on the telephone
But do I really want to know?
You're making love now to the lady down the road
No I don't, I don't want to know

I'm somewhere, you're somewhere
I'm nowhere, you're nowhere
You're somewhere, you're somewhere
I could go there but I don´t

Goodbye to my Santa Monica dream
Fifteen kids in the backyard drinking wine
You will tell me stories of the sea
And the ones you left behind
And the ones we left behind

TAB
[Pre Intro]
d |--0----------------------|
A |--0----------------------|
F#|--0----------------------|
D |--0----------------------|
A |--0----------0-----------|
D |--0----0--0--------------|

[Intro/Verse]

d |--------------------------|--------------------------|
A |-----0-----------0--------|-----0-----------0--------|
F#|-----------1-----------0--|-----------3-----------0--|
D |--------0-----------0-----|--------0-----------0-----|
A |--2-----------2-----------|--4-----------4-----------|
D |--------------------------|--------------------------|

d |-----0-----------0--------|-----0-----------0--------|
A |--------------------------|--------------------------|
F#|-----------0-----------0--|-----------0-----------0--|
D |--0-----0-----0-----0-----|--0-----0-----0-----0-----|
A |--------------------------|--------------------------|
D |--------------------------|--------------------------|


[Chorus]

d |--------------------------|--------------------------|
A |-----0-----------0--------|-----0-----------0--------|
F#|*----------0-----------0--|-----------0-----------0--|
D |*-------0-----------0-----|--------0-----------0-----|
A |--------------------------|--------------------------|
D |--0-----------0-----------|--0-----------0-----------|

d |--------------------------|---------------------------|  
A |-----0-----------0--------|-----0-----------0---------|
F#|-----------0-----------0--|-----------0-----------0--*|
D |--------0-----------0-----|--------0-----------0-----*|
A |--------------------------|---------------------------|
D |--5-----------5-----------|--5-----------5------------|(x2)

d |--------------------------|--------------------------|
A |-----0-----------0--------|-----0-----------0--------|
F#|-----------0-----------0--|-----------3-----------0--|
D |--------0-----------0-----|--------0-----------0-----|
A |--2-----------2-----------|--4-----------4-----------|
D |--------------------------|--------------------------|

d |-----0-----------0--------|-----0-----------0--------|
A |--------------------------|--------------------------|
F#|-----------0-----------0--|-----------0-----------0--|
D |--0-----0-----0-----0-----|--0-----0-----0-----0-----|
A |--------------------------|--------------------------|
D |--------------------------|--------------------------|


d |--------------------------|--------------------------|
A |-----0-----------0--------|-----0-----------0--------|
F#|-----------1-----------0--|-----------3-----------0--|
D |--------0-----------0-----|--------0-----------0-----|
A |--2-----------2-----------|--4-----------4-----------|
D |--------------------------|--------------------------|

DADF#AD Resources

Create DADF#AD Chord Sheets DADF#AD Guitar Tuner DADF#AD Songs DADF#AD Videos DADF#AD Tuning Map Create Variation on DADF#AD
           _____
          q o o p
          q o!o p
          d o!o b
           \!!!/
           |===|
           |!!!|
           |!!!|
           |!!!|              ____    ______  ____    ____
           |!!!|             /\  _`\ /\__  _\/\  _`\ /\  _`\
           |!!!|             \ \ \L\_\/_/\ \/\ \ \/\ \ \ \L\ \
          _|!!!|__            \ \ \L_L  \ \ \ \ \ \ \ \ \  _ <'
        .+=|!!!|--.`.          \ \ \/, \ \ \ \ \ \ \_\ \ \ \L\ \
      .'   |!!!|   `.\          \ \____/  \ \_\ \ \____/\ \____/
     /     !===!     \\          \/___/    \/_/  \/___/  \/___/
     |    /|!!!|\    ||
      \   \!!!!!/   //
       )   `==='   ((
     .'    !!!!!    `..
    /      !!!!!      \\
   |       !!!!!       ||
   |       !!!!!       ||
   |       !!!!!       ||
    \     =======     //
hjw  `.    ooooo    .;'
       `-._______.-'