Artist: Led Zeppelin, Title: rain song

D

G

C

G

C

D

Led Zeppelin - rain song

Found on:
1973‐07‐07: Chicago Stadium, Chicago, IL
Tour Over Europe 1980
1975-02-12: Four Blocks in the Snow: Madison Square Garden, NY, USA
The Song Remains the Same(2010-03-26)
Live at Knebworth – ’79(2010)
Electric Magic(2002)
1975-02-28: Led Astray: Louisiana State University, Baton Rouge, LA, USA
A Stroke in Stoke(2007)
1975-03-04: Over the Hills and Far Away: Memorial Auditorium, Dallas, TX, USA(1989)
1980-06-30: Lost Flight: Frankfurt, Germany
1975-05-23: Arabesque & Baroque - The Third Night: London Earl's Court Arena, London, UK(1996)
Live in Dallas 1975
The Greatest Hits(2008)
Arabesque & Baroque: The Second Night
1973-07-21: Providence, RI, USA
Over America(1994)
Quick Diet(2012-10-30)
1975-02-28: Louisiana State University, Baton Rouge, LA, USA
1975-02-13: Led Faces Over Coliseum: Nassau Coliseum, Uniondale, NY, USA
1973-05-14: The Municipal Auditorium, New Orleans, LA, USA
1975-02-14: Throwing The Wild Seeds: Nassau Coliseum, Uniondale, NY, USA
1973-05-14: The Witch Queen: Municipal Auditorium, New Orleans, LA, USA(2007-03)
1973-07-28: The Effect Is Shattering: Madison Square Garden, NYC, NY, USA(2004)
1975-02-10: Capital Centre, Landover, MD, USA(2016)
"The Rain Song" by Led Zeppelin
Tabbed by Steve Albert
Tuning - GSus4 
[D-G-C-G-C-D] - From low to high.

Guitar 1 - Accoustic
Guitar 2 - Clean Electric

D--0------/-/-/--0------/-/-/-----------------------------------------|
C---7-----/-/-/---6-----/-/-/-----5-5-3-2--3--/-/-/------2-2-2--/-/-/-|
G----0----/-/-/----0----/-/-/-----4-4-4-4--3--/-/-/------2-4-4--/-/-/-|
C-----7---/-/-/-----6---/-/-/-----5-5-5-5--3--/-/-/------2-2-2--/-/-/-|
G------0--/-/-/------0--/-/-/-0-0----------0--/-/-/-0-0--0-0-0--/-/-/-|
D---------------------------------------------------------------------|
                                                                      |
D--0-------------0----------------------------------------------------|
C---7-------------6---------------5-5-3-2--3-------------2-2-2--------|
G----0-------------0--------------4-4-4-4--3-------------2-4-4--------|
C-----7-------------6-------------5-5-5-5--3-------------2-2-2--------|
G------0-------------0---------------------0--------0-0--0-0-0--------|
D---------------------------------------------------------------------|
                                            

D--0---0---0---0---0---0-0--/-/-/--0---0---0---0---0---0-0--/-/-/-----|
C--11--9---12--11--4-S-9-9--/-/-/--11--9---12--11--4-S-9-9--/-/-/-----|
G--0---0---0---0---0---0-0--/-/-/--0---0---0---0---0---0-0--/-/-/-----|
C--11--9---12--11--4-S-9-9--/-/-/--11--9---12--11--4-S-9-9--/-/-/-----|
G--0---0---0---0---0---0-0--/-/-/--0---0---0---0---0---0-0--/-/-/-----|
D---------------------------------------------------------------------|
                                                                      |
D--0---0---0---0---0---0-0---------0---0---0---0---0---0-0------------|
C--11--9---12--11--4-S-9-9---------11--9---12--11--4-S-9-9------------|
G--0---0---0---0---0---0-0---------0---0---0---0---0---0-0------------|
C--11--9---12--11--4-S-9-9---------11--9---12--11--4-S-9-9------------|
G--0---0---0---0---0---0-0---------0---0---0---0---0---0-0------------|
D---------------------------------------------------------------------|


D-0--------/-/-/--0---/-/-/----5--5--5------5--5--5-------|
C-10-S-9---/-/-/--9---/-/-/----0--0--0------0--0--0-------|
G-11-S-10--/-/-/--10--/-/-/----0--0--0------0--0--0-------|
C-12-S-11--/-/-/--10--/-/-/----5--4--0--0-4-5--4--0-------|
G-0--------/-/-/--0---/-/-/-------------------------------|
D---------------------------------------------------------|
                                                          | X3
D-0---------------0------------5--5--5------5--5--5-------|
C-10-S-9----------9------------0--0--0------0--0--0-------|
G-11-S-10---------10-----------0--0--0------0--0--0-------|
C-12-S-11---------10-----------5--4--0------5--4--0-------|
G-0---------------0---------------------------------------|
D---------------------------------------------------------|


D---------------------------------------------------|
C---------------------------------------------------|
G--2--4-4--/-/-/----------2--4-4--/-/-/-------------|
C--2--2-2--/-/-/----------2--2-2--/-/-/-------------|
G--0--0-0--/-/-/----------0--0-0--/-/-/-------------|
D---------------------------------------------------|
                                                    |
D---------------------------------------------------|
C---------------------------------------------------|
G--2--4-4--2-4-0-2---0----2--4-4--2-4-0-2---0-------|
C--2--2-2----------4---2--2--2-2----------4---2-----|
G--0--0-0-----------------0--0-0--------------------|
D---------------------------------------------------|


D---------------------------------------------------|
C---------------------------------------------------|
G--2--4-4--/-/-/----------2--4-4--/-/-/-------------|
C--2--2-2--/-/-/----------2--2-2--/-/-/-------------|
G--0--0-0--/-/-/----------0--0-0--/-/-/-------------|
D---------------------------------------------------|
                                                    |
D---------------------------------2-----------------|
C-------------------------------------2-------------|
G--2--4-4--2-4-0-2---0----2--4-4----------4---------|
C--2--2-2----------4---2--2--2-2--------------------|
G--0--0-0-----------------0--0-0--------------------|
D---------------------------------------------------|

D--5-5-5--4h5p4------4-2-4--2-0------0---2-0h2p0-----------0---2-0h2p0-------|
C--4-4-4--------4----2-2-2--2-2-----0------------0--------0------------0-----|
G--4-4-4----------4--2-2-2--2-2----0---------------0-----0---------------0---|
C---------------------------------0---------------------0--------------------|
G--------------------------------2---------------------2---------------------|
D----------------------------------------------------------------------------|
                                                                             |
D----------------2---4-2-4--2-0------0---2-0h2p0-----------0---2-0h2p0-------|
C--------------4---4----------------0------------0--------0------------0-----|
G------------4---------------------0--------------0------0---------------0---|
C---------------------------------0---------------------0--------------------|
G--------------------------------2---------------------2---------------------|
D----------------------------------------------------------------------------|


D-------------------|
C-------------------|
G--2--4-4---/-/-/---|
C--2--2-2---/-/-/---|
G--0--0-0---/-/-/---|
D-------------------|
                    |
D-------------------|
C-------------------|
G--2--4-4-----------|
C--2--2-2-----------|
G--0--0-0-----------|
D-------------------|


D--0------/-/-/--0------/-/-/-----------------------------------------|
C---7-----/-/-/---6-----/-/-/-----5-5-3-2--3--/-/-/------2-2-2--/-/-/-|
G----0----/-/-/----0----/-/-/-----4-4-4-4--3--/-/-/------2-4-4--/-/-/-|
C-----7---/-/-/-----6---/-/-/-----5-5-5-5--3--/-/-/------2-2-2--/-/-/-|
G------0--/-/-/------0--/-/-/-0-0----------0--/-/-/-0-0--0-0-0--/-/-/-|
D---------------------------------------------------------------------|
                                                                      |
D--0-------------0----------------------------------------------------|
C---7-------------6---------------5-5-3-2--3-------------2-2-2--------|
G----0-------------0--------------4-4-4-4--3-------------2-4-4--------|
C-----7-------------6-------------5-5-5-5--3-------------2-2-2--------|
G------0-------------0---------------------0--------0-0--0-0-0--------|
D---------------------------------------------------------------------|


D--0---0---0---0---0---0-0--/-/-/--0---0---0---0---0---0-0--/-/-/-----|
C--11--9---12--11--4-S-9-9--/-/-/--11--9---12--11--4-S-9-9--/-/-/-----|
G--0---0---0---0---0---0-0--/-/-/--0---0---0---0---0---0-0--/-/-/-----|
C--11--9---12--11--4-S-9-9--/-/-/--11--9---12--11--4-S-9-9--/-/-/-----|
G--0---0---0---0---0---0-0--/-/-/--0---0---0---0---0---0-0--/-/-/-----|
D---------------------------------------------------------------------|
                                                                      |
D--0---0---0---0---0---0-0---------0---0---0---0---0---0-0------------|
C--11--9---12--11--4-S-9-9---------11--9---12--11--4-S-9-9------------|
G--0---0---0---0---0---0-0---------0---0---0---0---0---0-0------------|
C--11--9---12--11--4-S-9-9---------11--9---12--11--4-S-9-9------------|
G--0---0---0---0---0---0-0---------0---0---0---0---0---0-0------------|
D---------------------------------------------------------------------|


D-0--------/-/-/--0---/-/-/----5--5--5------5--5--5-------|
C-10-S-9---/-/-/--9---/-/-/----0--0--0------0--0--0-------|
G-11-S-10--/-/-/--10--/-/-/----0--0--0------0--0--0-------|
C-12-S-11--/-/-/--10--/-/-/----5--4--0--0-4-5--4--0-------|
G-0--------/-/-/--0---/-/-/-------------------------------|
D---------------------------------------------------------|
                                                          | X3
D-0---------------0------------5--5--5------5--5--5-------|
C-10-S-9----------9------------0--0--0------0--0--0-------|
G-11-S-10---------10-----------0--0--0------0--0--0-------|
C-12-S-11---------10-----------5--4--0------5--4--0-------|
G-0---------------0---------------------------------------|
D---------------------------------------------------------|


D---------------------------------------------------|
C---------------------------------------------------|
G--2--4-4--/-/-/----------2--4-4--/-/-/-------------|
C--2--2-2--/-/-/----------2--2-2--/-/-/-------------|
G--0--0-0--/-/-/----------0--0-0--/-/-/-------------|
D---------------------------------------------------|
                                                    |
D---------------------------------2-----------------|
C-------------------------------------2-------------|
G--2--4-4--2-4-0-2---0----2--4-4----------4---------|
C--2--2-2----------4---2--2--2-2--------------------|
G--0--0-0-----------------0--0-0--------------------|
D---------------------------------------------------|


D--5-5-5--4h5p4------4-2-4--2-0-2-4------|
C--4-4-4--------4----2-2-2--2-2-2-2------|
G--4-4-4----------4--2-2-2--2-2-2-2------|
C----------------------------------------|
G----------------------------------------|
D----------------------------------------|
                                         | X2
D----------------2---4-2-4--2-0----------|
C--------------4---4---------------------|
G------------4---------------------------|
C----------------------------------------|
G----------------------------------------|
D----------------------------------------|


D--5-5-5--4h5p4------4-2-4--2-0------0---2-0h2p0-----------0---2-0h2p0-------|
C--4-4-4--------4----2-2-2--2-2-----0------------0--------0------------0-----|
G--4-4-4----------4--2-2-2--2-2----0---------------0-----0---------------0---|
C---------------------------------0---------------------0--------------------|
G--------------------------------2---------------------2---------------------|
D----------------------------------------------------------------------------|
                                                                             |
D----------------2---4-2-4--2-0------0---2-0h2p0-----------0---2-0h2p0-------|
C--------------4---4----------------0------------0--------0------------0-----|
G------------4---------------------0--------------0------0---------------0---|
C---------------------------------0---------------------0--------------------|
G--------------------------------2---------------------2---------------------|
D----------------------------------------------------------------------------|


D-------------------|
C-------------------|
G--2--4-4---/-/-/---|
C--2--2-2---/-/-/---|
G--0--0-0---/-/-/---|
D-------------------|
                    |
D-------------------|
C-------------------|
G--2--4-4-----------|
C--2--2-2-----------|
G--0--0-0-----------|
D-------------------|


D--0------/-/-/--0------/-/-/-----------------------------------------|
C---7-----/-/-/---6-----/-/-/-----5-5-3-2--3--/-/-/------2-2-2--/-/-/-|
G----0----/-/-/----0----/-/-/-----4-4-4-4--3--/-/-/------2-4-4--/-/-/-|
C-----7---/-/-/-----6---/-/-/-----5-5-5-5--3--/-/-/------2-2-2--/-/-/-|
G------0--/-/-/------0--/-/-/-0-0----------0--/-/-/-0-0--0-0-0--/-/-/-|
D---------------------------------------------------------------------|
                                                                      |
D--0-------------0----------------------------------------------------|
C---7-------------6---------------5-5-3-2--3-------------2-2-2--------|
G----0-------------0--------------4-4-4-4--3-------------2-4-4--------|
C-----7-------------6-------------5-5-5-5--3-------------2-2-2--------|
G------0-------------0---------------------0--------0-0--0-0-0--------|
D---------------------------------------------------------------------|
                                            

D--0---0---0---0---0---0-0--/-/-/--0---0---0---0---0---0-0--/-/-/-----|
C--11--9---12--11--4-S-9-9--/-/-/--11--9---12--11--4-S-9-9--/-/-/-----|
G--0---0---0---0---0---0-0--/-/-/--0---0---0---0---0---0-0--/-/-/-----|
C--11--9---12--11--4-S-9-9--/-/-/--11--9---12--11--4-S-9-9--/-/-/-----|
G--0---0---0---0---0---0-0--/-/-/--0---0---0---0---0---0-0--/-/-/-----|
D---------------------------------------------------------------------|
                                                                      |
D--0---0---0---0---0---0-0---------0---0---0---0---0---0-0------------|
C--11--9---12--11--4-S-9-9---------11--9---12--11--4-S-9-9------------|
G--0---0---0---0---0---0-0---------0---0---0---0---0---0-0------------|
C--11--9---12--11--4-S-9-9---------11--9---12--11--4-S-9-9------------|
G--0---0---0---0---0---0-0---------0---0---0---0---0---0-0------------|
D---------------------------------------------------------------------|


D-0--------/-/-/--0---/-/-/----5--5--5------5--5--5-------|
C-10-S-9---/-/-/--9---/-/-/----0--0--0------0--0--0-------|
G-11-S-10--/-/-/--10--/-/-/----0--0--0------0--0--0-------|
C-12-S-11--/-/-/--10--/-/-/----5--4--0--0-4-5--4--0-------|
G-0--------/-/-/--0---/-/-/-------------------------------|
D---------------------------------------------------------|
                                                          | X3
D-0---------------0------------5--5--5------5--5--5-------|
C-10-S-9----------9------------0--0--0------0--0--0-------|
G-11-S-10---------10-----------0--0--0------0--0--0-------|
C-12-S-11---------10-----------5--4--0------5--4--0-------|
G-0---------------0---------------------------------------|
D---------------------------------------------------------|


D---------------------------------------------------|
C---------------------------------------------------|
G--2--4-4--/-/-/----------2--4-4--/-/-/-------------|
C--2--2-2--/-/-/----------2--2-2--/-/-/-------------|
G--0--0-0--/-/-/----------0--0-0--/-/-/-------------|
D---------------------------------------------------|
                                                    |
D---------------------------------------------------|
C---------------------------------------------------|
G--2--4-4--2-4-0-2---0----2--4-4--2-4-0-2---0-------|
C--2--2-2----------4---2--2--2-2----------4---2-----|
G--0--0-0-----------------0--0-0--------------------|
D---------------------------------------------------|


D---------------------------------------------------|
C---------------------------------------------------|
G--2--4-4--/-/-/----------2--4-4--/-/-/-------------|
C--2--2-2--/-/-/----------2--2-2--/-/-/-------------|
G--0--0-0--/-/-/----------0--0-0--/-/-/-------------|
D---------------------------------------------------|
                                                    |
D---------------------------------2-----------------|
C-------------------------------------2-------------|
G--2--4-4--2-4-0-2---0----2--4-4----------4---------|
C--2--2-2----------4---2--2--2-2--------------------|
G--0--0-0-----------------0--0-0--------------------|
D---------------------------------------------------|

D--5-5-5--4h5p4------4-2-4--2-0------0---2-0h2p0-----------0---2-0h2p0-------|
C--4-4-4--------4----2-2-2--2-2-----0------------0--------0------------0-----|
G--4-4-4----------4--2-2-2--2-2----0---------------0-----0---------------0---|
C---------------------------------0---------------------0--------------------|
G--------------------------------2---------------------2---------------------|
D----------------------------------------------------------------------------|
                                                                             |
D----------------2---4-2-4--2-0------0---2-0h2p0-----------0---2-0h2p0-------|
C--------------4---4----------------0------------0--------0------------0-----|
G------------4---------------------0--------------0------0---------------0---|
C---------------------------------0---------------------0--------------------|
G--------------------------------2---------------------2---------------------|
D----------------------------------------------------------------------------|


[No guitars in the next singing bit]


D-0--------/-/-/--0---/-/-/----5--5--5------5--5--5-------|
C-10-S-9---/-/-/--9---/-/-/----0--0--0------0--0--0-------|
G-11-S-10--/-/-/--10--/-/-/----0--0--0------0--0--0-------|
C-12-S-11--/-/-/--10--/-/-/----5--4--0--0-4-5--4--0-------|
G-0--------/-/-/--0---/-/-/-------------------------------|
D---------------------------------------------------------|
                                                          | X3
D-0---------------0------------5--5--5------5--5--5-------|
C-10-S-9----------9------------0--0--0------0--0--0-------|
G-11-S-10---------10-----------0--0--0------0--0--0-------|
C-12-S-11---------10-----------5--4--0------5--4--0-------|
G-0---------------0---------------------------------------|
D---------------------------------------------------------|


D---------------------------------------------------|
C---------------------------------------------------|
G--2--4-4--/-/-/----------2--4-4--/-/-/-------------|
C--2--2-2--/-/-/----------2--2-2--/-/-/-------------|
G--0--0-0--/-/-/----------0--0-0--/-/-/-------------|
D---------------------------------------------------|
                                                    |
D---------------------------------------------------|
C---------------------------------------------------|
G--2--4-4--2-4-0-2---0----2--4-4--2-4-0-2---0-------|
C--2--2-2----------4---2--2--2-2----------4---2-----|
G--0--0-0-----------------0--0-0--------------------|
D---------------------------------------------------|


D---------------------------------------------------|
C---------------------------------------------------|
G--2--4-4--/-/-/----------2--4-4--/-/-/-------------|
C--2--2-2--/-/-/----------2--2-2--/-/-/-------------|
G--0--0-0--/-/-/----------0--0-0--/-/-/-------------|
D---------------------------------------------------|
                                                    |
D---------------------------------2-----------------|
C-------------------------------------2-------------|
G--2--4-4--2-4-0-2---0----2--4-4----------4---------|
C--2--2-2----------4---2--2--2-2--------------------|
G--0--0-0-----------------0--0-0--------------------|
D---------------------------------------------------|


D--5-5-5--4h5p4------4-2-4--2-0------0---2-0h2p0-----------0---2-0h2p0-------|
C--4-4-4--------4----2-2-2--2-2-----0------------0--------0------------0-----|
G--4-4-4----------4--2-2-2--2-2----0---------------0-----0---------------0---|
C---------------------------------0---------------------0--------------------|
G--------------------------------2---------------------2---------------------|
D----------------------------------------------------------------------------|
                                                                             |
D----------------2---4-2-4--2-0------0---2-0h2p0-----------0---2-0h2p0-------|
C--------------4---4----------------0------------0--------0------------0-----|
G------------4---------------------0--------------0------0---------------0---|
C---------------------------------0---------------------0--------------------|
G--------------------------------2---------------------2---------------------|
D----------------------------------------------------------------------------|


Outro - Both guitars play the same exact thing.


D--s9-9-9-9-7-----7-7---5-7---5-5-5-4----4-4-4---|
C--s7-7-7-7---7---5-5-5-5-5---4-4-4---4--2-2-2---|
G--s7-7-7-7-------5-5---5-5---4-4-4------2-2-2---|
C--s7-7-7-7-------5-5----------------------------|
G---0-------------0------------------------------|
D------------------------------------------------|

D---4---5---7-7-7---7---8---10-10-10---10---12s(0)---|
C---2---4---5-5-5---5---7---8--8--8----8-------------|
G---2---4---5-5-5---5---7---8--8--8----8-------------|
C----------------------------------------------------|
G----------------------------------------------------|
D----------------------------------------------------|

D-----------0-----------------0---------|
C---------5---5---5---------5---5---5---|
G-------6-------6---------6-------6-----|
C-----7-----------------7---------------|
G---0-----------------0-----------------|
D---------------------------------------|

D---7p5-----5---2p0-------5p3---3--------0------0----|
C-------6-----------0--------4-4-4------5------4-----|
G---------7-----------0-------5---5----0------0------|
C-------------------------------------0--------------|
G--------------------------------------------4-------|
D----------------------------------------------------|

D---------0-------0-------0-------|
C-------2---2---2--------2--------|
G-----0-------0---------2---------|
C----------------------2----------|
G---2-----------------0-----------|
D--------------------0------------|


This is the springtime of my loving - the second season I am to know 
You are the sunlight in my growing - so little warmth I've felt before. 
It isn't hard to feel me glowing - I watched the fire that grew so low. 

It is the summer of my smiles - flee from me Keepers of the Gloom. 
Speak to me only with your eyes. It is to you I give this tune. 
Ain't so hard to recognize - These things are clear to all from 
time to time. 

Talk Talk - I've felt the coldness of my winter 
I never thought it would ever go. I cursed the gloom that set upon us... 
But I know that I love you so 

These are the seasons of emotion and like the winds they rise and fall 
This is the wonder of devotion - I see the torch we all must hold. 
This is the mystery of the quotient - Upon us all a little rain must fall.

DGCGCD Resources

Create DGCGCD Chord Sheets DGCGCD Guitar Tuner DGCGCD Songs DGCGCD Videos DGCGCD Tuning Map Create Variation on DGCGCD
           _____
          q o o p
          q o!o p
          d o!o b
           \!!!/
           |===|
           |!!!|
           |!!!|
           |!!!|              ____    ______  ____    ____
           |!!!|             /\  _`\ /\__  _\/\  _`\ /\  _`\
           |!!!|             \ \ \L\_\/_/\ \/\ \ \/\ \ \ \L\ \
          _|!!!|__            \ \ \L_L  \ \ \ \ \ \ \ \ \  _ <'
        .+=|!!!|--.`.          \ \ \/, \ \ \ \ \ \ \_\ \ \ \L\ \
      .'   |!!!|   `.\          \ \____/  \ \_\ \ \____/\ \____/
     /     !===!     \\          \/___/    \/_/  \/___/  \/___/
     |    /|!!!|\    ||
      \   \!!!!!/   //
       )   `==='   ((
     .'    !!!!!    `..
    /      !!!!!      \\
   |       !!!!!       ||
   |       !!!!!       ||
   |       !!!!!       ||
    \     =======     //
hjw  `.    ooooo    .;'
       `-._______.-'