Artist: Johann Sebastian Bach, Title: BWV 988 Variation 2

E

A

D

G

B

E

Johann Sebastian Bach - BWV 988 Variation 2

Found on:
Goldberg Variations - Variation No 2 - BWV 988
Johann Sebastian Bach (1685-1750)

tabbed by Mike Kohlert - <miccim15@yahoo.com>

|-----------------|-----------------|--3----8P7-8---5-|-----7-5-7-5---7-|
|---------5P3-5---|----3---3--------|-----------------|-7-----------8---|
|----4------------|------5---5-4-2--|--0--------------|-----7-----------|
|-----------------|-----------------|-----------------|-----------------|
|-----------------|-----------------|-----------------|-----------------|
|-----------------|-----------------|-----------------|-----------------|

|-3-----0---1-0---|-0---------------|-----------------|---3-2-5-3-2-0---|
|---3-1---3---0-3-|-0-----0---3-1-0-|-----------------|-0-------------3-|
|-----------------|---2-0---2---0---|-4-----4---5-4-2-|-0---------------|
|-----------------|-----------------|---4-2---2-------|-----------------|
|-----------------|-----------------|-----------------|-----------------|
|-----------------|-----------------|-----------------|-----------------|


|-8---7-----------|-----------------|---------7-------|-0-5---7-5-------|
|---------5-------|---3-2-5-3-2-0---|-0-4-5-8------8--|-----8-----8-7-5-|
|-0-----7---------|---------------2-|-0---------------|-----------------|
|---7-9-----------|-----------------|-----------------|-----------------|
|-----------------|-----------------|-----------------|-----------------|
|-----------------|-----------------|-----------------|-----------------|
                                                      __________________ ______
                                                      |1                |2 
|-----------------|-----------------|-----------------|-----------------|------|
|-----------------|-----------------|-----------------|-----------------|------|
|-7---------5-4---|-4---------2-0---|-----------------|-----------------|------|
|---7-5-9-7-----7-|---2-0-4-2-----4-|-2-----0---5-4-2-|-0---------------|-0----|
|-----------------|-----------------|---4-3---4-------|-----5-3-5-3-2-0-|----0-|
|-----------------|-----------------|-----------------|-----------------|------|
 
 
|---2-0-3-5-0-----|---3-2-5-3-2-0---|-------------2---|-----------------|
|-------------3-2-|-3-------------4-|-5---------------|-4---------------|
|-2---------------|-----------------|-----0---2-------|---0-5-2-0-------|
|-----------------|-----------------|-----------------|-----------4-2-1-|
|-----------------|-----------------|-----------------|-----------------|
|-----------------|-----------------|-----------------|-----------------|

|---------0-------|-----------------|-----------------|-----------------|
|-------1---3-1-0-|---------1-0-----|-----------------|--------0--------|
|---4-2-----------|-------0-----2-0-|-----------2-0---|-0---------------|
|-5---------------|-5-4-2-----------|-4-------4-----4-|-----------------|
|-----------------|-----------------|---6-4-5---------|-----------------|
|-----------------|-----------------|-----------------|-----------------|

|-----------------|-----------------|-----------------|-----------------|
|-----------------|-----------------|-----------------|-----------------|
|-4-2-0-4-2-------|-2---------------|-0---------------|-5-4-2-5-4-2-0---|
|-----------5-4-2-|---5-4-7-5-4-2---|---4-2-5-4-2-----|---------------4-|
|-----------------|---------------5-|-------------5-3-|-----------------|
|-----------------|-----------------|-----------------|-----------------|
                                                       _________________ _______
                                                      |1                |2 
|-----------------|-2-0---1-0-3-2-3-|-5-7-5-8-7-5-3-2-|-3---------------|3-----|
|-------------3---|-----3-----------|-----------------|------------0-1--|------|
|-4---0---4-------|-----------------|-----------------|----------2------|------|
|-----------------|-----------------|-----------------|----5-4-5--------|--0---|
|-----------------|-----------------|-----------------|-----------------|------|
|-----------------|-----------------|-----------------|-----------------|-----3|

EADGBE Resources

Create Chord Sheets Guitar Tuner Songs Videos Tuning Map Create Variation
           _____
          q o o p
          q o!o p
          d o!o b
           \!!!/
           |===|
           |!!!|
           |!!!|
           |!!!|              ____    ______  ____    ____
           |!!!|             /\  _`\ /\__  _\/\  _`\ /\  _`\
           |!!!|             \ \ \L\_\/_/\ \/\ \ \/\ \ \ \L\ \
          _|!!!|__            \ \ \L_L  \ \ \ \ \ \ \ \ \  _ <'
        .+=|!!!|--.`.          \ \ \/, \ \ \ \ \ \ \_\ \ \ \L\ \
      .'   |!!!|   `.\          \ \____/  \ \_\ \ \____/\ \____/
     /     !===!     \\          \/___/    \/_/  \/___/  \/___/
     |    /|!!!|\    ||
      \   \!!!!!/   //
       )   `==='   ((
     .'    !!!!!    `..
    /      !!!!!      \\
   |       !!!!!       ||
   |       !!!!!       ||
   |       !!!!!       ||
    \     =======     //
hjw  `.    ooooo    .;'
       `-._______.-'