Artist: Johann Sebastian Bach, Title: BWV 988 Variation 5

E

A

D

G

B

E

Johann Sebastian Bach - BWV 988 Variation 5

Found on:
Goldberg Variations - Variation No 5 - BWV 988
Johann Sebastian Bach (1685-1750)

tabbed by Tim Ivanic - <tivanic@rocketmail.com>

6th string = D


---------7---------------|---------5---------------|---------3---------------|
-----------------0-----0-|-------------------------|-------------------0-----|
---------0---0-2---2-0---|-2-0-----------0-2-------|-0---------------0---2-0-|
---0-2-4---4-------------|-----4-2-0-2-4-----4-2-0-|---4-2-0---0-2-4---------|
-------------------------|-------------------------|---------4---------------|
-5---------------5-------|-4---------------4-------|-2---------------2-------|


---------2---------------|---------10--------------|---------0---------------|
-------------------------|-3-0---0---0---0---------|-------------------------|
-----------------------2-|-----2---0---2-----0---0-|---0---0---0---0---0---0-|
-4-2-0---0---0-2-4-0-4---|-----------------0---4---|-4---0-------------------|
-------4---0-----5---3---|-2---------------2-------|-3-------3---2---0---2---|
-0-----------------------|-------------------------|-------------------------|


---------5---------------|-------------------------|-7-------0-2-0---7-------|
-------------------------|---------0-------0-------|---0-2-3-------3---0-----|
---0---0-----------------|---0---------------2-0---|-0-------0-------6---2-0-|
-----------4-2-4-0-4---4-|-----4-2-0-------------4-|-------------------------|
-3---2---3-----------3---|-2---------3-2-0---------|-------------------------|
-0---------------0-------|-5---------------5-------|-------------------------|


-5---------0-----5-------|-3-2-0---0-3---3-0-3---3-|
-----0-2-3---3-2-0-------|-------4-----3---2---0---|
---2---------------2-0---|---------0---4-----------|
-4-------4-------------4-|-2---4-------------------|
-------------------------|-------------------------|
-------------------------|-------------------------|



-0-3---3---0-3-0-2-0-35323-|-5-0---------2---3---5---|
-2---2---2---0-------------|-----3-2-3-----3---3---3-|
---------2-------2---0-----|-----------2-------------|
---------------------------|-4---2---4---0---2---4---|
---------------------------|-------------------------|
---------------------------|-------------------------|


-7-0---------3---5---7---|-0---------0-----0-3-2-0-|-2-5---2-2---5----10----||
-----3-2-3-0---3---3---3-|---3-2-0-2-----2---------|-----3-----3------------||
-0-------------------0---|-2---0-------2-----------|---------2-----2--------||
-----4---2---2---4-------|-------------2-----------|-0-----------4----0-----||
-------------------------|---------0-------4---0---|------------------------||
-------------------------|-------------------------|------------------------||


-2---------------2-------|-3-----3-5-----5-7---3---|-0---0---------3---20---0--|
---3-1-0-----------1-0---|-0---3-------3---------0-|-1-3-1-3-1---0--------4-1--|
---------2-0-----------2-|---0---------------0-2---|-----------2---2-0-2--4---2|
-------------4-2-0-------|-----4-2-0---------------|---------------------------|
-------------------------|-----------3-2-0---------|---------------------------|
---------0---------------|-----------------5-------|---------------------------|


-0-----------------------|---------0---------------|---------0---------------|
-0---4-------------------|---0-------0-------0-----|---1-------1-------1-----|
---2-0-------------0-2---|-0---0---0---0---0---0---|-2---2---0---0-----------|
-------4-----1-2-4-----4-|-------2-------2-0-----2-|-------2-------2-4---4-2-|
---------2-4-0-----------|-------------------------|-3---------------0-------|
-----------------5---4---|-2-----------------------|-------------------------|


---------0---------------|---------3---2---0-------|-0-------0---------------|
---1-------1-------1-----|---0-------0---0---0-4---|-------0---0---0---------|
-0---2---0---0-----------|-0---0-------2---0-----0-|-0---0-------0-----------|
-------2-------2-4---4-2-|-------2-------------4---|---2-------------2-0-----|
-2---------------0-------|-2-------2---------------|---------------------3-2-|
-------------------------|-------------------------|---------2-------2-------|

-0---------------0-------|-2-------3-------5-3-2-3-|-0-------2-------3-------|
-----------------1-------|-3---------3-1-3---------|-1-3-1-3---3-1-3---3-1-3-|
---------2---------2-0-2-|---2-0-2---------5-------|-----4---2---0-----------|
---2-0-2---2-0-2---------|-------------------------|-----------------4---2---|
-3-------3---------------|---------2---------------|-------------------------|
-------------------------|-------------------------|-------------------------|


-5-----------------5-3-2-|-3-----------------------|
---3-1-0-1-0---------0---|-0---0-------0---1---3---|
-----0-2-----2-0---5---2-|---0---0-2-0---0---0---0-|
-4-------0-------4-------|-----4-------3---2---0---|
-----------------5-------|-------------------------|
-------------------------|-------------------------|


-0-----------0---2---3---|-5---0-2-3-----------3-2-|-3---------------3----||
---1-0-1-3-1-0-1---1---1-|---3-------3-0-----1-----|-0-------0---3--------||
-----0-----------2---0---|---------------0-2-------|---0-0-----0---0------||
-------------------------|-4-----------0-------0---|-------0-0------------||
-3-----------------------|---3-2-0-2---------------|-------------2--------||
-------------------------|-----------------0-------|-----5-----------5----||

EADGBE Resources

Create Chord Sheets Guitar Tuner Songs Videos Tuning Map Create Variation
           _____
          q o o p
          q o!o p
          d o!o b
           \!!!/
           |===|
           |!!!|
           |!!!|
           |!!!|              ____    ______  ____    ____
           |!!!|             /\  _`\ /\__  _\/\  _`\ /\  _`\
           |!!!|             \ \ \L\_\/_/\ \/\ \ \/\ \ \ \L\ \
          _|!!!|__            \ \ \L_L  \ \ \ \ \ \ \ \ \  _ <'
        .+=|!!!|--.`.          \ \ \/, \ \ \ \ \ \ \_\ \ \ \L\ \
      .'   |!!!|   `.\          \ \____/  \ \_\ \ \____/\ \____/
     /     !===!     \\          \/___/    \/_/  \/___/  \/___/
     |    /|!!!|\    ||
      \   \!!!!!/   //
       )   `==='   ((
     .'    !!!!!    `..
    /      !!!!!      \\
   |       !!!!!       ||
   |       !!!!!       ||
   |       !!!!!       ||
    \     =======     //
hjw  `.    ooooo    .;'
       `-._______.-'