Artist: Johann Sebastian Bach, Title: BWV 996 Prelude

E

A

D

G

B

E

Johann Sebastian Bach - BWV 996 Prelude

Found on:
BWV 996 Lute Suite No 1 in Em Prelude - Johann Sebastian Bach (1685-1750)
1st version - by Vincenzo Chiaravalle + revisions and LHF
2nd version - by Craig Hawkins
**************************************************************************

PRELUDE - LUTE SUITE NO.1 BWV 996 in E Minor by JS BACH
Transcription for guitar in E Minor

Tabbed by:   VINCENZO CHIARAVALLE  
Comments to: vincenzochiaravalle@yahoo.com


Passaggio
                                               BII
E--------------------------------|---------------------------------|
B-12-10-8-10-12-7-8-----------5--|---------------------------------|
G--11---------------8-9-4-5-7---4|-5-----------2-------------------|
D--------------------------------|---6-7-2-4-5---2-4---1-2-1-------|
A--------------------------------|-------------------4-------0-2---|
E--------------------------------|-------------------------------2-|

  4 3 2 1 3  4  1 3 2 4 1 2 4 2 1  2 3 4 1 3 4 1 1 4 3 1 2 1 0 3 2_

                                                              tr.
E---------------------------------|-----------------------------------|
B---------------------------------|---0-------------------------------|
G---------------------------------|-------2---2-4---------------------|
D-------------2-1-2-5-4-2-1-5-----|-----4---5-----4-5-1-2-------------|
A-----2-----2-----------------2-0-|-----------------------0-3-2h3p2-2-|
E-3-5---2-3-----------------------|-3---------------------------------|

__2 4 1 2_2 1 2 1_1 4 3 1_1 4 2 0   2 0 3 1 4 1 4 3 4 1 2 0 3 2

                      tr.
E----------------------------3-2-3-5-|-----------0----------|
B----1p0-----------------------------|-4--4-4--4-0----7-5-3-|
G--------2p0-------------------------|(2)-2-2--2-0----------|
D-----------4-2-4p1-2p1h2------------|(4)-4-4--4-5----------|
A------------------------------------|-----------7----------|
E-0-----------------0----------------|-----------0----------|

  0 1    2  4 2 4 1 2 1 2    2 1 2 4   3 3 3  3  2    4 2_2 
                                       1 1 1  1  4
                    0                  2 2 2  2  0

E----------------------------|-----------------------------|
B-2-3-5-3-2------------------|-0---7---------7-------------|
G-----------4-3-4-3---3-3--3-|-4-----6-9-7-9---6-7-----6h7-|
D---------------------4-4--4-|-4-------------------8-9-----|
A---------------------4-4--4-|-5---------------------------|
E---------------------0-0--0-|-----------------------------|

  1 2 4 2 1 3 2 3 2   2 2  2___2   2 1 4 2 4 2 1 2 3 4 1h2       
                      4 4  4   1
                      3 3  3___3
                      0 0  0

   (tr.)        BII               BII.............tr.
E------------------5p3-----------|----------------------------------|
B---------------------6p5p3------|-3-3-3--3-3p2h3-------------3-5p0-|
G---------1-1--1-2---------5p4p2-|---4-4--4-2---------1-2-4-5-------|
D-6-------0-0--0-2---------------|---2-2--2-2-----2-4---------------|
A---------2-2--2-3---------------|----------0-----------------------|
E---------0-0--0-0---------------|---4-4--4-------------------------|

  1       1      1 3 1             2 2 2  2 2 1 2 2 4 1_1 3 4 2 4 0
          2      2    4 3 1          4 4  4 1
                           4 3 1     1 1  1 1
                                     3 3  3 0

       V  V IV             II..........        tr.
E------1-------0----------|---5---------0--0--------------|
B-1--1-6--5-4--0----3-1-0-|-2---2-4---4-0----3-1-0h1p0--0-|
G-2--2-5--5-4--0----------|-2-------2---0-----------------|
D-2--2-7--5-4--2----------|-2------(4)--2-----------------|
A-0--0-0--0-0-------------|-------------------------------|
E--------------3----------|-3-------2---3-----------------|

  2  2_2  1 1  1    4 1 0   1 4 1 4 1 4 1  0 4 1 0h1p0  0
  4  4 1  1 1                      (3)
  3  3_3  0 0  2            2       1   2

        tr.             tr. 
E---------------------------------|---------7-5--------------------------|
B-0-7p0-0h1p0(0)0-0-8p0-0h1p0---0-|-------0-----8-7-5-------5------0-----|
G-2----------(2)--0-----------0---|-3-3---4-----------7-6-4----1-2---2-2-|
D-4-----------4---5-----------2---|-4-----4----------------------0---2-4-|
A-6-----------6---7---------------|-4-----5--------------------------3---|
E-----------------0-----------0---|-0------------------------------------|

  1 4 0 0 1   1   0 4     1   1 0   2 2___2 3 1 4 3 1 4 3 1 2  1 2 0 2 2
  2           2___2                 4_____4                      0   1 4
  4           4___4                 3_____3                          3

        BII               Presto                BIII
E----------------0-2-3-|-2-------|-7-7-5-|-3-3-2-3-0-|
B-0----0-2-4--4--0-0---|-0-----7-|-------|-5-5---3---|
G-0----0-2-4--4--0-----|---------|-----4-|-----------|
D-2--4-2-2-4--4----2---|-1-------|-------|-----------|
A-2--------2-----------|-2-------|-------|-----------|
E----------------------|---------|-------|-----------|

  2  4 0 1 4  4  0 3 4   3     3   4 4 2   2 2 1 1 0
  1    0 1 3  3    0     0             1   4 4   1
       2 1 2  2    2     1
           1             2                      
                                                   BII
E-5-5---3---|-2-2-0-2---|-3-3---2---|-0-5-------|---3-2-3-|
B-------1---|-3-3-----3-|-----------|-----------|---5---5-|
G-5-5-4---2-|-------5---|-4-4-2-4---|-5-5-4-5-2-|-4-----4-|
D-----------|-----------|---------5-|-----------|---------|
A-----------|-----------|-----------|-----------|---------|
E-----------|-----------|-----------|-----------|---------|

  4 4   4 2   1 1 0 1 2   2 2   1     0 4           2 1 2
  3 3 2 1     2 2   4     3 3 1 3     3 3 2 3 1     4   4
                                  4               3     3
 BII.......            II
E-2-------|-----------|-----------|-----------|-----------|
B-5-4-2-4-|-5-5---3---|-2-2-0-2---|-3-3---1---|-0-5-------|
G-4-4---2-|-------0---|-2-2-----2-|-----------|-----------|
D---------|-5-5-4---2-|-------5---|-4-4-2-4-0-|-5-5-4-5-2-|
A---------|-----------|-----------|-----------|-----------|
E---------|-----------|-----------|-----------|-----------|

  1         4 4   4 2   1 1 0 1 1   2 2   1     0 4
  4_4 1 4   3 3 2 0     1 1   4     3 3 1 4 0   3 3 2 3 1
  3 3   1

 BII.......       BII
E---------|---------|-----------|-----------|-----------|
B---3-2-3-|-2-------|-0---------|-----------|-----------|
G---4---4-|(4)3-1-3-|-----------|-----------|-----------|
D-4-------|-4-4---2-|-1-1---1---|-2-2---0---|-----------|
A-------2-|---------|-2-2-4-0-2-|-----------|-4-4-2-4-0-|
E---------|-------2-|-----------|-3-3-2-3-0-|-5-5---3---|

    2 1 2   1 2 1 2   1 1   1     2 2   0     3 3 1 3 0
    4   4   3 3   1   2 2 4 0 2   3 3 1 3 0   4 4   2
  3     1   4     1
                                                II
E---------|-----------|-----------|-----------|-----------|
B---------|-----------|-----------|-----------|-----------|
G---------|-----------|-----------|---0-------|---2-------|
D-0-0----0|---2---0---|---4---2---|-1-----4---|-2---------|
A-------3-|-2---------|-4-0---0---|-2-2-0-2---|-3-3-2-3-0-|
E-2-2-0-2-|-3-3-2-3-0-|-5---3---2-|---------3-|-----------|

  0 0   2   2 2   0     3 2   2     1 0   4     2 2
  1 1 0 1   3 3 1 3 0   4 0 1 0 1   2 2 0 1 2   3 3 1 3 0

            BIV              III    
E-------0---|-7--7--5-|-3-3-2-3-0-|-5-0---5---|-7-0---7---|
B-----------|---------|---5---3---|-----------|-----------|
G---0---0---|-------4-|-----------|-5-5-4-5-2-|-----------|
D---2-4-2---|-4-------|-2---------|-----------|-6-6-4-6---|
A-2---------|----6----|-----------|-----------|---------7-|
E-----------|---------|-----------|-----------|-----------|

    0   0     4  4  2   2 2 1 1     4 0   4     4 0   4
  1 2 4 2     1  3  1   1 4   1     3 3 2 3 1   2 2 1 2 3

               VII               II         III    II......
E-8---0-------|-----0-2---|-3-3---2---|-0-5---3---|-2-3-2-3-0-|
B---------10--|-7-7-----3-|-3-3---3---|-1-5---5---|-3---------|
G-------------|-7---------|---0-------|-0---------|-2-4-2-4-0-|
D-7-6-7-9-10-7|---0-------|-----------|-----------|-0---------|
A-------------|-------3---|-2-2-0-2---|-3-3-2-3-0-|-----------|
E-------------|-----------|---------3-|-----------|-----------|

  4   0    4    1 2 0 1     4 4   1     1 4   1     1 2 1 2
  2 1 1 3  3 1  1 0   2 3   3 3   3       3   3     2 
                            1 1 0 1 2   3 1 1 1 0   1 3 1 3

  BII                                BII...        II (tr.)
E-2-7-5-7-3-|-5---------|-0-0---0---|-2--3--5-|-7-3-2-------3-|
B-3---------|-3-3---3---|-3-1---1---|-3-(2)-3-|-0---3-----1---|
G-2---------|---0---0---|-0-2---2---|-2--4--2-|-0---2---------|
D-0-5-4-5-2-|-4---------|-----------|-0--2--4-|-----0-----0---|
A-----------|-5-2-0-2---|-3-3-2-3-0-|---------|---------------|
E-----------|---------3-|-----------|---------|---------------|
 
  1 4 2 4 2   4 4   4     4 1   1    1   2  4   4 1 1     1 4
  2           1 0   0     0 2   2    2   1  2   0   2
  1 1 1 1 1   2 1 0 1 2   3 3 3 3 0  1   3  1   0   1     0
              3                          1  3

            BII..........
E-3---------|-----------|-----------|-----------|-----------|
B-0-5---3---|-2-2-0-2---|-3-3---1---|-0-0---0---|-1-1-0-1---|
G-0-----0---|-2-2-----2-|-----------|-----2---0-|---2-----2-|
D---5-4---2-|-------5---|-4-4-2-4-0-|-5-5---4---|-2---------|
A-----------|-----------|-----------|-----------|-----------|
E-3---------|-----------|-----------|-----------|-----------|

  4 4   4     1 1 0 1 1   2 2   1     0 0 1 0 0   1 1 0 1 3
  3 3 2 0 2   1 1   4     3 3 1 4 0   3 3   3     2 3

            BV......
E--(0)------|-----------|-0-----0---|------------|---0-------|
B-0-5-------|-5-4-2-4-0-|---0-------|-1------1---|-0-----0---|
G-----------|-----------|-----------|----2-------|-----------|
D---5-4-5-2-|-4---------|-2---------|-2----------|-2---------|
A-----------|-2-2---0---|-----------|-0--0---0---|-----------|
E-------0---|-----------|-4-4-2-4-0-|------4---2-|-4-4-2-4-0-|

  0 4         4 4 1 4 0   1 0   0     1  2   1     2 0   0
    3 2 3 1   3 1   0     3 3 1 3 0   2  0 4 0 2   4 4 2 4 0

              IV                      II          II
E-----------|---7---7---|-0-0-2---0-|---5---5---|-----0-----|
B-1-6-8-5-6-|-4---4---4-|-------3---|-2---2---2-|-3-3---1-3-|
G-------0---|-4---------|---0-------|-2---------|--(2)------|
D-2-7-------|-4---------|-------4---|-2---------|---4---2---|
A-0---------|-0---------|-----------|-----------|-----------|
E-----------|-----------|-3---------|-3---------|-2---------|

  1 2 4 2 3   1 4 1 4 1   0 0 1 2 0   1 4 1 4 1   2 2 0 1 4
  2 3   0     1             0   3     1             3   2
  0           1           2           1
                                      2           1

                         BII  IV        II
E---3---3---|---5---5---|---7---7---|-0--2--3-|---5-2--0-|-0----||
B-0---0---0-|-2---2---2-|-3---4---4-|-0--4--5-|-----0----|-0----||
G-0---------|-2---------|------(4)--|-0--2--4-|-5----2---|-1----||
D-2-2-------|-2-4-------|-4-----4---|---------|-------1--|-2----||
A-----------|-0-----0---|-2-----0---|---------|-0---2----|-2----||
E-3-----3---|-----------|-----------|-3--2--0-|----------|-0----||

  0 4 0 4 0   1 4 1 4 1   2 4 1 4 1   0  1  1   2 3 4  0   0  
  0           1           3     0     0  2  3       0      0
  2 2         1 3         1           0  1  2   0    3     1
  3     3     0     0           1     2  1  0       2 1    3
                                                           2
                                                           0


Tabbed by:   VINCENZO CHIARAVALLE  
Comments to: vincenzochiaravalle@yahoo.com


**************************************************************************
**************************************************************************


PRELUDE - LUTE SUITE NO.1 BWV 996 by JS BACH

Tabbed by Craig Hawkins June 2000
Comments to: craighawkins19@yahoo.com

===== indicates sustain

Passaggio

E-7---5---5-7---------------0---|---------------------------------|
B---7---8-----7-8-4-5-0-1-3---0-|-1-------------------------------|
G-------------------------------|---1-2-------2-------------------|
D-------------------------------|-------2-4-5---2-4---1-2-1-------|
A-------------------------------|-------------------4-------0-2---|
E-------------------------------|-------------------------------2-|

                                                              tr.
E---------------------------------|-----------------------------------|
B---------------------------------|---0---------0---------------------|
G---------------------------------|-------2---2-----------------------|
D-------------2-1-2-5-4-2-1-------|-----4---5-----4-5-1-2-------------|
A---0-2-----2-----------------2-0-|-----------------------0-3-2h3p2-2-|
E-3-----2-3-----------------2-----|-3---------------------------------|

                      tr.
E----------------------------3-2-3-5-|-----------0----------|
B------------------------------------|-4--4-4--4-0----------|
G----5-4-2---------------------------|-2--2-2--2-0---11-9-7-|
D---------5-4-2-4-1-2-1h2p1----------|-4--4-4--4-2----------|
A-------------------2----------------|-----------2----------|
E-0-----------------0----------------|-----------0----------|

                      VI      VII
E---------------------6-6--6-|-7---2---0---0-2-------------|
B---------------------7-7--7-|-7-----2---3-----2-3---0-2h3-|
G-6-7-9-7-6-4-3-4-3=--6-6--6-|-7-------------------3-------|
D----------------------------|-0---------------------------|
A---------------------7-7--7-|-----------------------------|
E----------------------------|-----------------------------|

    tr.                                     tr.
E---------4-4--4-5-5p3-----------|------------------------------0---|
B---------5-5--5-5----6p5p3------|-3-3-3--3-3p2h3---------0-1-3---0-|
G-2-1h2p1-4-4--4-5---------5p4p2-|---4-4--4-2---------1-2-----------|
D---------0-0--0-----------------|---2-2--2-2-----2-4---------------|
A----------------3---------------|----------0-----------------------|
E--------------------------------|---4-4--4-------------------------|

          V IV             II                  tr.
E------1------------------|---5---------0=-0--------------|
B-1--1-1--5-4--5===-3-1-0-|-2---2-4---4-0----3-1-0h1p0--0-|
G-2--2-2--5-4--4----------|-2-------2---------------------|
D-2--2----5-4--2----------|-2-------4---2-----------------|
A-0--0-0--0-0-------------|-0-----------------------------|
E--------------4----------|---------2---3-----------------|

        tr.             tr. 
E---2---------------3-------------|---------7-5--------------------------|
B-0---0-0h1p0---0-0---0-0h1p0---0-|-------------8-7-5-------5=-----------|
G-2---------------0---------------|-3-3-3h4-----------7-6-4----1-2-4-2-2-|
D-4-----------4---2-----------5---|-4-----4----------------------2---2-4-|
A-6-----------6---2-----------7---|-4-----5----------------------5---3---|
E-----------------0-----------0---|-0------------------------------------|

                          Presto
E----------------0-2-3-|-2-------|-7-7-5-|-3-3-2-3-0-|
B-0=====-2-4--4--0-0---|-0-----7-|-----0-|-5-5---3---|
G-0----0-2-4--4--0-----|---------|-------|-----------|
D-2--4-2-2-4--4----2---|-1-------|-------|-----------|
A-2==6-----2==---------|-2-------|-------|-----------|
E----------------------|---------|-------|-----------|


E-5-5---3---|-2-2-0-2---|-3-3---2---|-0-5=======|==-0---0=|
B-----0-1---|-3-3-----3-|-------0---|-----------|-0-8-7-8-|
G-5-5-----2-|-------5---|-4-4-2---0-|-5-5-4-5-2-|---------|
D-----------|-----------|-----------|-----------|---------|
A-----------|-----------|-----------|-----------|-------7-|
E-----------|-----------|-----------|-----------|---------|

                              II
E==-------|-0-0-------|-----------|-----------|---0=======|
B-7-------|-------3---|-2-2-0-2---|-3-3---1---|-0---------|
G---8-6-8-|-------0---|-2-2-----2-|-----------|-----------|
D-9-9---7-|-5-5-4---2-|-------5---|-4-4-2-4-0-|-5-5-4-5-2-|
A---------|-----------|-----------|-----------|-----------|
E---------|-----------|-----------|-----------|-----------|


E==-------|---------|-----------|-----------|-----------|
B---3-2-3-|-2=------|-0---------|-----------|-----------|
G---4---4=|==-3-1-3-|-----------|-----------|-----------|
D-4-------|-4-4---2-|-1-1---1---|-2-2---0---|-----------|
A-------2-|---------|-2-2-4-0-2-|-----------|-4-4-2-4-0-|
E---------|-------0-|-----------|-3-3-2-3-0-|-5-5---3---|

                                                II
E---------|-----------|-----------|-----------|-----------|
B---------|-----------|-----------|-----------|-----------|
G---------|-----------|-----------|---0-------|---2=======|
D-0-0-----|---2---0---|---4---2---|-1-----4---|-2---------|
A-------3-|-2---------|-4-0---0---|-2-2-0-2---|-3-3p2-3---|
E-2-2-0-2-|-3-3-2-3-0-|-5---3---2-|---------3-|---------5-|

                                    V
E---------0-|-7--7--5-|-3-3-2-3-0-|-5-----5---|-7-0---7---|
B-----------|-------0-|-5-5---3---|---5-------|-----------|
G==-0---0---|---------|-----------|-5-5---5---|-----------|
D-----4-----|-4-------|-2---------|-----9---7-|-6-6-4-6---|
A-2-7---7===|==--6----|-----------|-----------|---------7-|
E-----------|---------|-----------|-----------|-----------|

          V                       II         III    II
E-8---0---5---|---2-0-2---|-3-3---2---|-0-5---3---|-2-3-2-3-0-|
B-------0-----|-7-------3-|---3---3---|-1-5---5---|-3---------|
G---------5---|-7---------|---0-------|-0---------|-2-4-2-4-0-|
D-7-6-7-----7-|---0-------|-----------|-----------|-0---------|
A-------------|-------3---|-2-2-0-2---|-3-3-2-3-0-|-----------|
E-------------|-----------|---------3-|-----------|-----------|

                                                   II tr.
E-2-7-5-7-3-|-5---------|-0-0---0---|-2--3--5-|-7---2h3p2---3-|
B-3---------|-3-3---3---|-3-1---1---|-3--0--3-|---8-----------|
G-2-0---0---|---0---0---|-0-2-------|-5-----2-|-7---2-----5---|
D-0---4---2-|-4---------|-----------|-0--2--4-|-5---0---------|
A-----------|-5-2-0-2---|-3-3-2-3-0-|---------|---------------|
E-----------|---------3-|-----------|---------|---------------|

III
E-3---------|-----------|-----------|-----------|-----------|
B-3-5---3---|-1-1-0-1---|-3-3---1---|-0-0---0---|-1-1-0-1---|
G-4-0---0---|-2-2---0-2-|-----------|-----2---0-|---2=====2-|
D-----4---2-|-----------|-4-4-2-4-0-|-5-5---4---|-2---------|
A-----------|-----------|-----------|-----------|-----------|
E-3---------|-----------|-----------|-----------|-----------|


E---0=======|==---------|-0-----0---|------------|---0-------|
B-0---------|---4-2-4-0-|---0-------|-1------1---|-0-----0---|
G-------0---|-----------|-----------|----2-------|-----------|
D---5-4---2-|-4=--------|-2=--------|-2=---------|-2=========|
A-----------|-2-2---0---|-----------|-0--0---0---|-----------|
E-------0---|-----------|-4-4-2-4-0-|------4---2-|-4-4-2-4-0-|

              IV                      II          II
E-----------|---7---7---|-0-0-2---0-|---5---5---|-----------|
B---7-8-5-7-|-4---4---4-|---0---3---|-2---2---2-|-3-3-5-1-3-|
G-5-5---0---|-4---------|---0-------|-2---------|---2-------|
D---7-------|-4---------|-------4---|-2---------|---4---2---|
A-0=========|==---------|-----------|-----------|-----------|
E-----------|-----------|-3=========|==---------|-2=--------|


                            IV           II
E---3---3---|---5---5---|---7---7---|-0--2--3=|==-5-2=-0-|-0====||
B-0---0---0-|-1---2---2-|-3---4---4-|-0--4--5-|-----0----|-0====||
G-0---------|-2---------|-4-----4---|-0--2--4-|-5------2-|-1====||
D-0-2=======|==-4=======|==-----4---|---------|-2------1-|-2====||
A-----------|-0-----0---|-2-----0---|---------|-0---2----|------||
E-3-----3---|-----------|-----------|-3--2--0-|----------|-0====||

FIN.

**************************************************************************
**************************************************************************

EADGBE Resources

Create Chord Sheets Guitar Tuner Songs Videos Tuning Map Create Variation
           _____
          q o o p
          q o!o p
          d o!o b
           \!!!/
           |===|
           |!!!|
           |!!!|
           |!!!|              ____    ______  ____    ____
           |!!!|             /\  _`\ /\__  _\/\  _`\ /\  _`\
           |!!!|             \ \ \L\_\/_/\ \/\ \ \/\ \ \ \L\ \
          _|!!!|__            \ \ \L_L  \ \ \ \ \ \ \ \ \  _ <'
        .+=|!!!|--.`.          \ \ \/, \ \ \ \ \ \ \_\ \ \ \L\ \
      .'   |!!!|   `.\          \ \____/  \ \_\ \ \____/\ \____/
     /     !===!     \\          \/___/    \/_/  \/___/  \/___/
     |    /|!!!|\    ||
      \   \!!!!!/   //
       )   `==='   ((
     .'    !!!!!    `..
    /      !!!!!      \\
   |       !!!!!       ||
   |       !!!!!       ||
   |       !!!!!       ||
    \     =======     //
hjw  `.    ooooo    .;'
       `-._______.-'