Artist: Johann Sebastian Bach, Title: BWV 996 Allemande

E

A

D

G

B

E

Johann Sebastian Bach - BWV 996 Allemande

Found on:
Lute Suite No 1 in Em BWV 996 - Allemande - JS Bach (1685-1759)
2 versions - 1st by Vincenzo Chiaravalle 2nd by Rod Kahler
*********************************************************************

Date: Sun 09 Dec 2001 11:39:10 +0100
Subject: JSBACH - Allemande from Lute Suite BWV996
From: Vincenzo Chiaravalle <marsicanguy@tin.it>

Allemande from Lute Suite No 1 BWV 996 Em - Johann Sebastian Bach


E||--------------------|------------0-------------------0-|
B||-----------------0--|--0-----------3-1-------------0---|
G||*-------------------|------------------4-2-0-----0-----|
D||*-------------------|----------2-------------4-2-------|
A||--------------------|--------2-------------------------|
E||--------------------|----0h3---------------------------|
                              3 1 2   4 1 4 2   4 2


----------------------------------|------0---------------------------|
--4---------5-4-5-7---5-8-7---4---|----0-------0-1-3-1-----------3---|
----------4---------4-------6---2-|--0-----------------4-2-0---2---2-|
--------4-------------------------|----------2---------------4---4---|
------6-------4---6---7---0---2---|--------2---------0---3---5-------|
----7-----------------------------|--0-----------0-------------------|
  1 4 3 1 1 2 1 2 4 1 1 4-4 2 4 1          2 3   1 4 1 4 2   3 1 2 1
              1   3   3   0   1                          3   4   3


------------------0---------------|----------------------------------|
--0---------3-1-0---0-1-3-1-------|----------------0-----------------|
----------------------------4-2-0-|--------------0---2-4-------4-----|
----4-5-0-2-----0-----------------|--4-2-0-----0---------2-5-4---4-7-|
------------2-3---3---------------|--------3-2-------3---4---5---6---|
--3-------------------------------|----------------------------------|
  2 3 4   1 4 1 0     1 4 1 4 2 0    4 2 0 3 2       1 3 1 4 1 3 1 4
            1 3 0 3                                  2   3   2   3     


------------------------------0---|------7---------------------------|
--------------------2---2-3-----0-|--7p0---10-8-7-----------0-0------|
--0-2-0---------------------4-----|---------------9-7-------------3--|
--2-----4-2-0---------4-----------|------------------11-9-8---4------|
--------------4-2-1-------2---4---|--5--------7---9--10---7----------|
----------------------------------|------7----------------------2----|
  0 3 0
  2     4 2   4 2 1 2 4 2 2 3        4p0 1 4  2 1 4 1 4 2-2   0 1 2
                          1---1------1   1    1   3   3   1   3


--------------------------------||--------------------|
--0---------------0-------------||---------------4----|
-------------------------------*||*-------------------|
--------1-2-4-6-8---5-4-2-4----*||*-------------------|
----2-4-------------7-6-4-6-----||--------------------|
--------------------------7-----||--------------------|
  0 2 4 1 2 4 2 4   2 1-1-1                      1
                    4 3-3-3
                          4


------------7-5-------------------|--0-3-7-----5---------------------|
--4-------------8-7-5-----0---4---|--------0-5---8-7-5-3-2-------2---|
----------4-----------8-6---2-0---|------0-----------------4-2-------|
--------4-----------------------4-|--2-------------------------5-4-2-|
------6---------------------------|----------------------------------|
----7-----------------------------|----------------------------------|
  1 4 3 1 1 3 1 4 3 1 4 2   1 4 3    0 4-4 0 1 1 4 3 1 2 1 3 1 4 1 
                              0      2   0                       3 1


------------------------------0---|--2-3-2--------------------------|
--3-------3-5-3-------------------|--------5-3-2-----------2-2---0--|
--------2-------5-4-2-------------|--------------4-3-4-3-4---3------|
--4-0-4---------------5-4-2-------|------------------0-------4------|
----------------------------5-4-2-|--1-------2---4-------2----------|
----------------------------------|------2---------------------2----|
  2     1 2 4 2 4 3 1 4 3 1 4 0 1    2 3 1 4 2 1 4 2 4 3 4 1 1 1 0
  3   3                       3      1   1   1   3   0   1   2
                                                             3


----------------------0-----------|----------------------------------|
--0-----------------0---------0---|--1-------------------3-----------|
----0-----------------------1-----|----------2---------2---------2---|
------4-2-1---------------2-----2-|--------2-------------------4-----|
--2---------3-2-0-------2---------|----0h3-----2-0---------0-5-----5-|
------------------4-----------0---|----------------3-2---------------|
  0 0 4 2 1 3 2 0 4 0 0 2 3 1   3    1 0 3 1 2 1 0 3 1 2 4 0 4 3 1 4 
  2


----------------------------------|----------------0-------------2-5-|
--0-------------------0-----------|--------------0---1---------2-----|
----------0-----------------------|--0---------0-------------2-------|
--------0---5-4-----4-------1-4---|----------2-------------2---------|
------2---------7-6-------2-----2-|--------2-----------0-4-----------|
----3-------------------2---------|----0h3---------------------------|
  0 3 1 0 0 2 1 4 3 1 0 2 3 1 4 2    0 0 3 1 2 0 0 0 1 0 3 1 1 1 1 4


------------------0-------------------|-------------------0--------0---||
--4-------0-2-4p0---------------------|----------------------------0---||
--------------------0-----------------|------------4-5-7~---2-1----1--*||
--------4-----4---2---4-2-1h2p1h2-1-2-|--2---4-6-7--------------4--2--*||
------6-------0-------0-3-2-----------|---------------------3-2-0--2---||
----7-------------3-------------------|----0-----------------------0---||
  1 4 3 1 0 1 4 0 2 0 4 2 1 2 1 2 1 1    1 0 1 3 4 1 2 4  0 2 1 4  0
              3   3   0 3 2                                 3 2 0  0
                                                                   1
                                                                   3
                                                                   2
                                                                   0


*********************************************************************
*********************************************************************

From browsers@flash.net Wed Sep  1 10:17:27 1999
Date: Sun 29 Aug 1999 19:53:43 -0700
From: GLEN R. KAHLER (browsers@flash.net)
Subject: J.S. Bach -- Allemande

Johann Sebastian Bach

Allemande from Lute Suite No 1 BWV 996

Submitted by Rod Kahler (browsers@flash.net)

This is one of my favorite songs to play on the guitar. Its in 4/4
timing played fairly fast. Once you memorize the positions its pretty
easy to play.
Add rest strokes when possible and attack those slurs.
You may want to listen to this song.  You can hear Segovia play it on
his "All Bach Performance" or you can download the midi file at
www.prs.net 

                                                           
E||--------------------|--------------------------------0-|
B||-----------------0--|--0---------5p3---------------0---|
G||*-------------------|----------------5-4p2-------0-----|
D||*-------------------|----------2-----------5p4-2-------|
A||--------------------|--------2-------------------------|
E||--------------------|----0h3---------------------------|


----------------------------------|------0---------------------------|
--4---------5-4h5-7-0-5-8-7---4---|----0-------0-1h3-1p0---------3---|
----------4-----------------6---2-|--0-------------------2-0---2---2-|
--------4-------------------------|----------2---------------4-------|
------6-------4---6---7-------2---|--------2---------0---3---5---5---|
----7---------------------5-------|--0-----------0-------------------|


------------------0---------------|----------------------------------|
--0---------3-1-0---0-1h3-1p0-----|----------------0---0-------0-----|
------0-----------------------2p0-|--------------0---2-----0---------|
----4---0-2-----0-----------------|--4-2p0-----0---------2---4---4h7-|
------------2-3---3---------------|--------3-2-------3---4---5---6---|
--3-------------------------------|----------------------------------|


------------------------------0---|--2---7--------0------------------|
--------------------2---2-3-----0-|----0---10-8p7---3-2p0---0-0------|
----------------------------4-----|-------------------0---3-------3--|
--5h7-5-4-2p0---------------------|--0------------4-------2---4------|
--7-----------4-2\1-------2---4---|-----------7----------------------|
----------------------2-----------|------7----------------------2----|


--------------------------------||--------------------|
--0---------------0-------------||---------------4----|
--------------1h3--------------*||*-------------------|
--------1h2h4-------5-4-2-4----*||*-------------------|
----2h4-------------7-6-4-6-----||--------------------|
--------------------------7-----||--------------------|


------------7p5-3-2p0-------------|--0-3-7-----5---------------------|
--4-------------------4-2p0---4---|--------0-5---8p7-5p3-2p0-----2---|
----------4-----------------2-0---|--0---0-------------------2p0-----|
--------4-----------------------4-|----2-------------------------4p2-|
------6---------------------------|----------------------------------|
----7-----------------------------|----------------------------------|


--------------------------------0-|--2h3-2-0------------------------|
--3-------3h5-3-------------------|----------3p2-----------2-2------|
--------2-------5-4p2-------------|--------------4p3-4p3-4-------4--|
--4---4---------------5p4-2p0-----|------------------0---2---4------|
----5-------------------------4-2-|--1-------2---4------------------|
----------------------------------|------2---------------------2----|


----------------------0-----------|----------------------------------|
--------------------0---------0---|--1-------1-----------3-----------|
--4-------------------------1-----|----------2---------2---------2---|
----5p4-2\1---------------2-----2-|--------2-------------------4-----|
--2---------3-2p0-------2---------|----0h3-----2p0---------0h5-----5-|
------------------4-----------0---|----------------3-2---------------|



----------------------------------|------------------------------2h5-|
--0-------0-----------0-----------|--------------0-5-----------2-----|
----------0-----------------------|--0---------0-----5-------2-------|
--------0---5p4-2\1-4-------1h4---|----------2-------------2---------|
------2-------------------2-----2-|--------2-----------0h3-----------|
----3-------------------2---------|----0h3---------------------------|



------------------0-------------------|-------------------0------------||
--4-----------4-----------------------|--------------------------------||
----------4-6---4---0-----------------|------------4-5-7~---2-1-------*||
--------4-----4---2---4-2-1h2p1h2---2-|--2---4-6-7--------------4--2--*||
------6-------0-------0-3-2-------2---|---------------------3-2-0------||
----7-------------3-------------------|----0-----------------------4---||


correspondence welcome at browsers@flash.net


*********************************************************************
*********************************************************************

EADGBE Resources

Create Chord Sheets Guitar Tuner Songs Videos Tuning Map Create Variation
           _____
          q o o p
          q o!o p
          d o!o b
           \!!!/
           |===|
           |!!!|
           |!!!|
           |!!!|              ____    ______  ____    ____
           |!!!|             /\  _`\ /\__  _\/\  _`\ /\  _`\
           |!!!|             \ \ \L\_\/_/\ \/\ \ \/\ \ \ \L\ \
          _|!!!|__            \ \ \L_L  \ \ \ \ \ \ \ \ \  _ <'
        .+=|!!!|--.`.          \ \ \/, \ \ \ \ \ \ \_\ \ \ \L\ \
      .'   |!!!|   `.\          \ \____/  \ \_\ \ \____/\ \____/
     /     !===!     \\          \/___/    \/_/  \/___/  \/___/
     |    /|!!!|\    ||
      \   \!!!!!/   //
       )   `==='   ((
     .'    !!!!!    `..
    /      !!!!!      \\
   |       !!!!!       ||
   |       !!!!!       ||
   |       !!!!!       ||
    \     =======     //
hjw  `.    ooooo    .;'
       `-._______.-'