Artist: Johann Sebastian Bach, Title: BWV 1002 Bourre

E

A

D

G

B

E

Johann Sebastian Bach - BWV 1002 Bourre

Found on:
Date: Mon 23 Aug 1999 20:21:25 -0700
From: "GLEN R. KAHLER" (browsers@flash.net)
Reply-To: browsers@flash.net
Organization: BROWSERS CORNER

Subject: J.S. Bach --Bouree from Partita No 1 for solo violin BWV 1002
Johann Sebastian Bach
Bouree from Partita No. 1 for Solo Violin BVW 1002

Submitted by Rod Kahler (browsers@flash.net)

I really like this song. It is in 4/4 timing. Look out for running 8th
notes. The Bouree is a brisk lively dance so make sure to beat the hell
out of this one.

You may want to listen to this song. You can hear on the Segovia CD
"an all Bach performance" or at the Classical Midi Archives (www.prs.net)

 
E||-------------------||---7---------7---------|------------------3----|
B||--------------7----||---7----7----7----7----|--8----8p-7--5---------|
G||-------------------||*--7---------7---------|--6---------------3----|
D||-------------------||*--9---------9---------|--8---------------2----|
A||-------------------||---9---------9---------|-----------------------|
E||-------------------||---7---------7---------|-----------------------|

--2----0-----------------|-------------------------|----------------------|
--0----2----5p3h5p3-2----|--5p-3--2--3-------3--2--|--3--------------3----|
-------------------------|--------------4----------|----------------------|
--0----2----4------------|--4----------------------|-------4----5---------|
-------------------------|--2----------------------|-------2----2---------|
-------------------------|-------------------------|----------------------|

------------------5--0--|----------------------|------------------7-----|
--2----2p-0--2----------|--2--------------2----|---------------------8--|
--0---------------------|----------------------|--4----4p-2--4----------|
------------------------|-------2----4---------|--4---------------------|
--0---------------------|-------0----0---------|------------------------|
------------------------|----------------------|--3---------------------|

------------------------|-------------------2--3--|--5-------------------|
-------8----------5-----|-------0--2--3h-5--------|-------3----5----2----|
--9-------9--6-------6--|--0----------------------|-----------------2----|
------------------------|--7----------------------|-------4----5---------|
------------------------|-------------------------|----------------------|
------------------------|-------------------------|----------------------|

-------------7---------|-------------5---------|------------------0----|
--3----2--3-------3----|--2--0--2--------------|--0----3----2h-3-------|
--2---------------1----|--0---------------5----|--0--------------------|
-----------------------|------------------4----|-------4----2-----0----|
--2--------------------|--0---------------0----|-----------------------|
-----------------------|-----------------------|--3--------------------|

------------------0-----|-------0----------0-----|----------------------|
------------------------|------------------------|-------2----10--------|
--0----0-----0----------|--0----------0----------|--0-------------------|
----------4----------4--|----------4----------4--|----------------------|
--4---------------------|--4----------2----------|--0-------------------|
------------------------|------------------------|----------------------|

------10h-9--7---------7------|------------------------|--------------------||
--10------------10p-8-----10--|--8p-7-------------2----|--3-----------------||
------------------------------|--------9--7-------0----|-------------------*||
------------------------------|------------------------|--4----------------*||
------------------------------|--------------0---------|--5-----------------||
------------------------------|------------------------|--------------------||

--------------2----|--0----2----3----2----|--0----0-----0----5----|
--------------3----|--2----3----5----3----|--2-------3-------3----|
-------------------|--2---------2---------|--2--------------------|
--------------0----|----------------------|------------------4----|
-------------------|----------------------|------------------0----|
-------------------|----------------------|-----------------------|

----------------------|-----------------------|--0----3---------2----|
--2----3----5----3----|--2----2--0--2----4----|--0-------------------|
----------------------|-----------------------|--0----4---------2----|
--2----4----5----4----|--2----2--0--2----4----|----------------------|
--0---------0---------|--0--------------------|------------2---------|
----------------------|-----------------------|--3-------------------|

--0-----0----0----------|-------7----5p3h5p3-2--0--|--0--------------3----|
-----4------------8--7--|--8----5------------------|-----------------0----|
--0-----0----0----9--8--|--9----0----4-------------|----------------------|
-----4------------------|--------------------------|------------0---------|
--3---------------------|--------------------------|--2----4---------2----|
------------------------|--------------------------|----------------------|

----------------------|--3----2--0--2----7----|-------7---------5----|
-------8---------8----|-----------------------|------------2---------|
--6---------6---------|--2--------------------|--4-------------------|
--7---------7---------|--0--------------------|------------4---------|
----------------------|-----------------------|--6-------------------|
----------------------|-----------------------|----------------------|

--4----------------9--7--|--9--------------9----|------------------7p-6--|
-----7--6--4-------------|----------------------|------------------------|
--------------6----------|-------9----9---------|--9----7--6--7----------|
-------------------------|-------9----8---------|--9---------------------|
--4----------------------|----------------------|------------------------|
-------------------------|----------------------|------------------------|

                          look out for these 8th notes!                                                 
--7--------------7----|-----------------5--7p-4--|--7p-5--4---------------|
----------------------|--------6--7--9-----------|-----------7-------6----|
-------7----7----7----|--6h-8--------------------|--6-----------6---------|
-------7----6---------|--------------------------|--4---------------------|
-----------------9----|--8-----------------------|------------------------|
----------------------|--------------------------|------------------------|

-------------------------|-------5---------5----|--5----3p-2--3-----------|
--7----------------------|------------4---------|-------------------------|
-------------------------|----------------------|--4----------------------|
-------4h-5--4-----------|------------4---------|--2-------------2h-4--5--|
----------------7--6p-4--|--2---------2---------|-------------------------|
-------------------------|----------------------|-------------------------|

-------3---------3----|--3----2--0--2-----------|-------0---------0----|
------------2---------|----------------3p-2--0--|----------------------|
----------------------|--2----------------------|--3---------0---------|
------------2---------|--0----------------------|----------------------|
--0---------0---------|-------------------------|--4---------2---------|
----------------------|-------------------------|----------------------|

--------0-----0--3p-2--0--|--------------------------|--------------------2h-4--|
-----------3--------------|--3p-2--0-----------0--2--|--3p-0--2--------2--------|
-----6--------------------|-----------2--0h-3--------|-----------3--------------|
--4-----------------------|--------------------------|--------------4-----------|
--------------------------|--------------------------|--------------------------|
--6-----------------------|--------------------------|--------------------------|

--6h-7--6--7--9h-10--9--10--|--12-------------12------------|
----------------------------|-------------------------------|
----------------------------|------11-----11------11--------|
----------------------------|----------8--------------8h-9--|
----------------------------|-------------------------------|
----------------------------|-------------------------------|

----------------------7--9--|--10-------------10-------------|-------------------------|
------------7--9h-11--------|--------------------------------|-------------------------|
------7--9------------------|------10-----10------10---------|--7h-9--7--6-------------|
--11------------------------|----------9--------------9h-11--|--------------9p-7--6----|
----------------------------|--------------------------------|-----------------------9-|
----------------------------|--------------------------------|-------------------------|

-----10p-9--7--6--------0--|------------------------|------------------------|
------------------8p-7-----|--3p-2--3--0------------|--0----3p-2--0----------|
---------------------------|-------------------3----|------------------------|
---------------------------|--------------4---------|--4---------------------|
--8------------------------|------------------------|--2---------------2--0--|
---------------------------|------------------------|------------------------|

------------------------|--2---------------------|--------------------------|
-------3p-2-------------|--0---------------------|--------------------------|
-------------4p-3--4----|-------4--3--4----5p-4--|-----------------5p-4-----|
------------------------|--0---------------------|--7--5p-4--------------7--|
------------------------|------------------------|-----------7--6-----------|
--3---------------------|------------------------|--------------------------|

--------------------------|--------7-----------10--9--|--7p-6--7h-9-------9-----|
--------------------------|-----7-----9--6------------|--------------7----------|
--------------------4--6--|--7--------------6---------|----------------------7--|
--5p-4-----4--5p-7--------|---------------------------|-------------------------|
--------7-----------------|---------------------------|-------------------------|
--------------------------|---------------------------|-------------------------|

-------9-----------9-----|----------------------|----------------------------|
-------------------------|-------8--7--8--------|--8--7----------------------|
--9-------7--9--------7--|--9-------------------|--------9--7----------------|
-------------------------|--8-------------------|--------------11--9--8h-11--|
--9----------11----------|----------------------|----------------------------|
-------------------------|----------------------|----------------------------|

----------------------------|--7---------7---------|-------------0----3----|
----------------------------|--7----7----7----7----|--8----8p-7-------5----|
----------------------------|--7---------7---------|--6---------------3----|
----------------------------|--9---------9---------|--8--------------------|
--7--10p-9--7---------------|--9---------9---------|-----------------------|
---------------10--9--7p-6--|--7---------7---------|-----------------------|

--2----0---------------|-------------------||
--3----0----3----5--2--|--0----------------||
--4----0----4----3-----|-------------------||
------------4----4-----|--0----------------||
--2--------------------|--2----------------||
-------0----2----2-----|-------------------|| 

EADGBE Resources

Create Chord Sheets Guitar Tuner Songs Videos Tuning Map Create Variation
           _____
          q o o p
          q o!o p
          d o!o b
           \!!!/
           |===|
           |!!!|
           |!!!|
           |!!!|              ____    ______  ____    ____
           |!!!|             /\  _`\ /\__  _\/\  _`\ /\  _`\
           |!!!|             \ \ \L\_\/_/\ \/\ \ \/\ \ \ \L\ \
          _|!!!|__            \ \ \L_L  \ \ \ \ \ \ \ \ \  _ <'
        .+=|!!!|--.`.          \ \ \/, \ \ \ \ \ \ \_\ \ \ \L\ \
      .'   |!!!|   `.\          \ \____/  \ \_\ \ \____/\ \____/
     /     !===!     \\          \/___/    \/_/  \/___/  \/___/
     |    /|!!!|\    ||
      \   \!!!!!/   //
       )   `==='   ((
     .'    !!!!!    `..
    /      !!!!!      \\
   |       !!!!!       ||
   |       !!!!!       ||
   |       !!!!!       ||
    \     =======     //
hjw  `.    ooooo    .;'
       `-._______.-'