Artist: Johann Sebastian Bach, Title: BWV 1006a Prelude

E

A

D

G

B

E

Johann Sebastian Bach - BWV 1006a Prelude

Found on:
Prelude from Lute Suite No 4 (BWV 1006a) - Johann Sebastian Bach (1685-1750)

tabbed by Curzio Vasapollo (updated March 2010)

E||-------12_11-12------------|------------------------|
B||----------------12--9--12--|------------------------|
G||---------------------------|--9_11-9-8-9------------|
D||---------------------------|--------------9------9--|
A||---------------------------|-----------------11-----|
E||--0------------------------|------------------------|

-----------------------------|--------------------------|
-----------------------------|--------------------------|
-----------------------------|----9-8_6---9-8_6---------|
----9---9----9----9----9---9-|----------9-------9_7-6---|
--7---9---11---12---11---9---|--7---------------------9-|
--0--------------------------|--------------------------|

-----------------------------|--------------------------|
-----------------------------|--------------------------|
-----------------------------|----9-8-6---9-8-6---------|
----9---9----9----9----9---9-|----------9-------9-7-6---|
--7---9---11---12---11---9---|--7---------------------9-|
--0--------------------------|--------------------------|

---------------------------|----7-0--------7-9-11_12-9-11-|
------------------7_9-10-7-|--9-----7-9_10----------------|
------------6-8_9----------|------------------------------|
------6_7-9----------------|------------------------------|
--7_9----------------------|------------------------------|
--0------------------------|------------------------------|

--12-7----7---7----7---7---7|
-------10---9---10---9---7--|
----------------------------|
----------------------------|
----------------------------|
--0-------------------------|

----12-11-9------9-------------|----7---7---7----7---7---7-|
------------12-------12---10---|--9---7---9---10---9---7---|
--9------------9---9----9----9-|---------------------------|
-------------------------------|---------------------------|
-------------------------------|---------------------------|
-------------------------------|--0------------------------|

----12-11-9------9-------------|----0---0---0---0----0---0-|
------------12-------12---10---|--9------------------------|
--9------------9---9----9----9-|------9---8---9---11---8---|
-------------------------------|---------------------------|
-------------------------------|---------------------------|
-------------------------------|--0------------------------|

----0----0----0----0----0----0-|-----0---0---0---0----0---0-|
-------9---------9---10--------|--9-------------------------|
--9--------11-------------11---|-------9---8---9---11---8---|
-------------------------------|----------------------------|
-------------------------------|----------------------------|
-------------------------------|--0-------------------------|

----0----0----0----0----0----0-|-----0----------0----------0-------|
-------9---------9---10--------|--9-----9-----9----9-----9----9----|
--9--------11-------------11---|------------9---------9----------9-|
-------------------------------|-----------------------------------|
-------------------------------|-----------------------------------|
-------------------------------|--0--------------------------------|

-----0----------0----------0-------|-----0----------0----------0-------|
--9-----9-----9----9-----9----9----|--9-----9-----9----9-----9----9----|
-----------8----------8----------8-|-----------7----------7----------7-|
-----------------------------------|-----------------------------------|
-----------------------------------|-----------------------------------|
-----------------------------------|-----------------------------------|

-----0----------0----------0-------|-----0---------0---------0------|
--10---10----10---10----10---10----|--10---10---10---10---10---10---|
-----------------------------------|--------------------------------|
----------11---------11---------11-|----------9---------9---------9-|
-----------------------------------|--------------------------------|
-----------------------------------|--------------------------------|

-----0---------0---------0------|-----0----------0----------0-------|
---9----9----9----9----9----9---|--9-----9----9-----9----9-----9----|
--------------------------------|-----------------------------------|
----------9---------9---------9-|-----------7----------7---------7--|
--------------------------------|-----------------------------------|
--------------------------------|-----------------------------------|

-----0----------0----------0-------|-----0----------0----------0-------|
---7----7-----7----7-----7----7----|--7-----7-----7----7----7------7---|
-----------------------------------|-----------------------------------|
-----------7----------7----------7-|-----------6----------6----------6-|
-----------------------------------|-----------------------------------|
-----------------------------------|-----------------------------------|

----0--------0--------0------|----0-------0-------0-----|
--5---5----5---5----5---5----|--5---5---5---5---5---5---|
-----------------------------|--------------------------|
---------6--------6--------6-|--------4-------4-------4-|
-----------------------------|--------------------------|
-----------------------------|--------------------------|

----0-------0-------0-----|--------------------------|
--4---4---4---4---4---4---|------------0--------0----|
--------------------------|----------1-------1-------|
--------4-------4-------4-|--2_4-2_4-----2_4-----2-4-|
--------------------------|--------------------------|
--------------------------|--0-----------------------|

------------0-------0-----|------------4-------4-----|
----------0-------0-------|--------------------------|
--1-2-1-2-----1-2-----1-2-|--4-6-4-6-7---4-6-7---4-6-|
--------------------------|--------------------------|
--------------------------|--------------------------|
--0-----------------------|--4-----------------------|

----7-4_0-----------------|----------------------------|
----------3---------------|----------------------------|
--7---------4-------------|----------------------------|
--6-----------6-2---------|----------3_6------3_6------|
------------------5_4-5-2-|--4_6-4_6------4_6------4_6-|
--------------------------|----------------------------|

------------------------------|------------1-------1-----|
------------------------------|----------0-------0-------|
------------6-----------6-----|--1-2-1-2-----1-2-----1-2-|
--3-4-3-4-6-----3-4--6----3-4-|--3-----------------------|
--4---------------------------|--------------------------|
------------------------------|--------------------------|

----4-----7_4-5-----4-----|----------2---------------|
------6---------7-6-----0-|----2-------4-5_2---4-----|
-4------6-------------6---|--2---2-----------5-------|
-3------------------------|--------4-------------6_4-|
--------------------------|--------------------------|
--------------------------|--2-----------------------|

------------------0---4---|----------4-3-4-3-4---0---|
--------------2-----2---2-|----4---------------4-----|
----1-------1---1---------|--5---5-----------------6-|
--2---2---2---------------|--------6-----------------|
--4-----4-----------------|--------------------------|
--------------------------|--4-----------------------|

---------------------0---|--------------------------|--------------------------|
---4-----7-6-7-6-7-4-----|----4---------------------|--------------------------|
-5---5-----------------6-|--5---5-------------------|--------------------------|
-------6-----------------|--------6-7-6-7-6-7-------|----4---4---4---4---4---4-|
-------------------------|--------------------6-7-4-|--3---4---6---4---3---6---|
-4-----------------------|--4-----------------------|--------------------------|

-------------------------|--------------------------|--------------------------|
-----4-------4-------4---|----------5-------5-------|------4-------4-------4---|
---------5-------5-------|------6-------6-------6---|----------5-------5-------|
---4---4---4---4---4---4-|--------------------------|----4---4---4---4---4---4-|
-------------------------|----7---7---7---7---7---7-|--------------------------|
-4-----------------------|--4-----------------------|--4-----------------------|

-------------------------|--------------------------|--------------------------|
---------5-------5-------|----------5-------5-------|----------5-------5-------|
-----6-------6-------6---|------6-------6-------6---|------6-------6-------6---|
-------------------------|----5---5---5---5---5---5-|----5---5---5---5---5---5-|
---7---7---7---7---7---7-|--------------------------|--------------------------|
-4-----------------------|--4-----------------------|--4-----------------------|

-------------------------|--------------------------|--------------------------|
---------4-------4-------|----------4-------4-------|----2-------2-------------|
-----6-------6-------6---|------5-------5-------5---|------4_2-1---1-----1-----|
---6---6---6---6---6---6-|----4---4---4---4---4---4-|--2-------------4-2---2-1-|
-------------------------|--------------------------|--4-----------------------|
-4-----------------------|--4-----------------------|--------------------------|

-------------------------|----------0-------0-------|----------0-------0-------|
---2---------------------|--------------------------|--------------------------|
-----1-----1-------------|------6-------6-------6---|------6-------6-------6---|
-------4-2---2-1---2-----|----4---4---4---4---4---4-|----4---4---4---4---4---4-|
-4---------------4---4-2-|--------------------------|--------------------------|
-------------------------|--6-----------------------|--6-----------------------|

---7-6_4---7-------------|----7---------------------|------0---4---7---4---0---|
-4-------7---7-5-4-7-4---|------7-5-4-7-4-----4-----|--------------------------|
-----------------------6-|--4-------------6-4---4---|----7---7---7---7---7---7-|
-------------------------|------------------------7-|--6-----------------------|
-------------------------|--------------------------|--------------------------|
-7-----------------------|--------------------------|--------------------------|

-------------------------|----0-5_4-5-0---0---0---0-|----5-4-2-----2-----------|
-----5-------------------|--2-----------3---2---0---|----------5-------5---3---|
---7---7---7---7---7---7-|--------------------------|--2---------2---2---2---2-|
-6-------6---4---6-------|--------------------------|--------------------------|
---------------------7---|--0-----------------------|--------------------------|
-0-----------------------|--------------------------|--------------------------|

---0---0---0---0---0---0-|----5-4-2-----2-----------|--------------------------|
-2---0---2---3---2---0---|----------5-------5---3---|--------------------------|
-------------------------|--2---------2---2---2---2-|--6-----------------------|
-------------------------|--------------------------|------7---6---7---9---6---|
-0-----------------------|--------------------------|----0---0---0---0---0---0-|
-------------------------|--------------------------|--------------------------|

-------------------------|--------------------------|--------------------------|
-------------------------|--------------------------|--------------------------|
-----6---4---6---7---4---|--6-----------------------|------6---4---6---7---4---|
-7-----------------------|------7---6---7---9---6---|--7-----------------------|
---0---0---0---0---0---0-|----0---0---0---0---0---0-|----0---0---0---0---0---0-|
-------------------------|--------------------------|--------------------------|

-------------------------|--------------------------|--------------------------|
-------------------------|--------------------------|--------------------------|
-6---6---6---6---6---6---|--6---6---6---6---6---6---|--6---6---6---6---6---6---|
-------7-------7-------7-|--------6-------6-------6-|--------5-------5-------5-|
---0-------0-------0-----|----0-------0-------0-----|----0-------0-------0-----|
-------------------------|--------------------------|--------------------------|

-------------------------|--------------------------|--------------------------|
-------------------------|--3---3---3---3---3---3---|--2---2---2---2---2---2---|
-7---7---7---7---7---7---|--------------------------|--------------------------|
-------4-------4-------4-|--------2-------2-------2-|--------2-------2-------2-|
---0-------0-------0-----|----0-------0-------0-----|----0-------0-------0-----|
-------------------------|--------------------------|--------------------------|

-------------------------|--------------------------|--------------------------|
-2---2---2---2---2---2---|--------------------------|--------------------------|
-------------------------|--4---4---4---4---4---4---|--4---4---4---4---4---4---|
-------0-------0-------0-|--------0-------0-------0-|--------------------------|
---0-------0-------0-----|----0-------0-------0-----|--------4-------4-------4-|
-------------------------|--------------------------|----5-------5-------5-----|

-------------------------|--------------------------|--------------------------|
-------------------------|--------------------------|--------------------------|
-2---2---2---2---2---2---|--2---2---2---2---2---2---|--------------------------|
-------------------------|--------------------------|--6---6---6---6---6---6---|
-------4-------4-------4-|--------2-------2-------2-|--------2-------2-------2-|
---5-------5-------5-----|----5-------5-------5-----|----5-------5-------5-----|

-------------------------|--------------------------|--------------------------|
-------------------------|--------------------------|------------2-------2-----|
-------------------------|--------------------------|--------------------------|
-----------2-------2-----|------------7-------7---0-|--2-4-2-4-5---2-4-5---2-4-|
-0-2-0-2-4---0-2-4---0-2-|--4_5-4_5-7---4-5-7---4---|--4-----------------------|
-5-----------------------|--5-----------------------|--------------------------|

---0---------------------|--------------------------|--------------------------|
-----2-3-5-2-----2-------|--------------------------|------------0-------0-----|
-0-----------3-4---3-----|--------------------------|--------------------------|
---------------------4-2-|--0---------4-------4-----|--0-2-0-2-4---0-2-4---0-2-|
-1-----------------------|--2-4-2-4-5---2-4-5---2-4-|--2-----------------------|
-------------------------|--------------------------|--------------------------|

-------------------------|--------------------------|----7-4-5-7-4-----4-------|
-----------4-------4-----|----7-4-5-7-4-----4-------|--------------6-7---6---0-|
-------------------------|--2-----------5-6---5-----|----------------------6---|
-4-6-4-6-7---4-6-7---4-6-|----------------------6-4-|--3-----------------------|
-0-----------------------|--3-----------------------|--4-----------------------|
-------------------------|--------------------------|--------------------------|

----9---7-9----------------|----10-7-9-10-7------7---------|
-----10----10-7-9-10-7-----|----------------9-10----9----9-|
-----------------------7-6-|--------------------------10---|
--7------------------------|--9----------------------------|
--9------------------------|-------------------------------|
---------------------------|--7----------------------------|

---------------------------|-------------7-------7-------|
-----------6-9-----6-9-----|--6-7--6-7-9---6-7-9----6-7--|
---6-8--6-8-----6-8----6-8-|-----------------------------|
---------------------------|--6--------------------------|
---------------------------|-----------------------------|
---------------------------|-----------------------------|

----------------10---------10------|-----10--------------------7-5-4-|
--9--10-9-10-12----9-10-12----9-10-|--12----12-9----12-9-------------|
--10-------------------------------|-------------10------10----------|
-----------------------------------|------------------------11-------|
-----------------------------------|---------------------------------|
-----------------------------------|---------------------------------|

---4-5-----5-4-2---4-2-1-|----1-2-----2-0-----0-----|--------------------------|
-------7-----------------|--------3-------3-----3-2-|----2-3-----3-2-----2-0---|
-------------------------|--------------------------|--------4-------4-------2-|
-4-----------------------|--0-----------------------|----------3-------4-------|
---------2-------4-------|----------4-------1-------|--2-----------------------|
-------------------------|--------------------------|--------------------------|

-------------------------|--------------------------|--------------------------|
-----0-----0---0---0---0-|----------0---3---2---0---|----------------------2---|
-1-2---2-1---2---1-------|------1-2-----------------|----2-------------2-------|
-0-------------------4---|--3-4-------3---3---3---3-|------4-------4-----4---4-|
-------------------------|--4-----------------------|--------4-0-4---4---------|
-------------------------|--------------------------|--2-----------------------|

-----------------1---4---|-------------2---5-2-9---|---4-----9-8-9-8-9---------|
-------------2-----2---0-|---2-------2---2-------7-|-6---6-------------9-10----|
---1-------1---1---------|-2---2---2---------------|-------6----------------11-|
-3---3---3---------------|-------4-----------------|---------------------------|
-4-----4-----------------|-4-----------------------|-4-------------------------|
-------------------------|-------------------------|---------------------------|

------------------------------------|-----------------------------------|
-----9-------12-11-12-11-12-9-10----|-----9-----------------------------|
--10---10------------------------11-|--10---10--------------------------|
----------11------------------------|----------11-12-11-12-11-12--------|
------------------------------------|---------------------------11-12-9-|
--9---------------------------------|--9--------------------------------|

-------7-7---------------|------2-9-9--7------------|--------------------------|
-----------9-10-7--9---0-|----2------10--9-7-10-----|--0-3---------------------|
-----------------10------|--2-------------------7-6-|------0-----1-----------1-|
-----11-------------11---|--------------------------|--------4-3-----------4---|
-8-11--------------------|--------------------------|--2-----------4-2-0-4-----|
-9-----------------------|--2-----------------------|--------------------------|

-------------------------|--------------------------|--------------------------|
---------2---3-----------|--------------------------|--------------------------|
-2---4---------------1---|----2---2---2---2---2---2-|----2---2---2---2---2---2-|
---4---4---4---4---4---3-|--4---6---7---6---4---2---|--1---2---4---6---7---4---|
-------------2---4-------|--------------------------|--2-----------------------|
-------------------------|--2-----------------------|--------------------------|

-----------0---0---0---0-|----0---0---0---0---0---0-|------------------2-4-5-2-|
-------------4---2---0---|------0---2---4---5---2---|--4-5-4-2---2-4-5---------|
-1-2-1-------------------|--3-----------------------|----------4---------------|
-------4-2---------------|--------------------------|--------------------------|
-------------------------|--------------------------|--2---------------0-------|
-0-----------------------|--2-----------------------|--------------------------|

-7-----------------------|----------------------4---|--5-----------------------|
---0---0---0---0---0---0-|------------------5-7---5-|--------------------------|
-------------------------|------------4-6_7---------|----2---2---2---2---2---2-|
-----7---6---4-----------|------4-6-7---------------|------6---4---2---1-------|
-----------------7---5---|--4_7---------------------|----------------------4---|
-4-----------------------|--5---------------4-------|--2-----------------------|

-------------------0-2---|--4-----------------------|------------0-5-4-5-2---0-|
-------------0-2-4-----4-|--------------------------|------2-0-2-----------2---|
---------1_2-------------|--------------------------|--------------------------|
---1_2-4-----------------|----2---2---2---2---2---2-|----2---------------------|
-2-----------------------|------5---4---2---0-------|--0-----------------------|
-4---------------2-------|--0-------------------4---|--------------------------|

-----------2-5-4-5-2---2-|------------0-4-2-4-0---0-|------------0-6-4-6-0---0-|
-----4-2-4-----------4---|------0---0-----------0---|------2-0-2-----------2---|
-------------------------|----1---2-----------------|----3---------------------|
---4---------------------|--------------------------|--------------------------|
-2-----------------------|--2-----------------------|--2-----------------------|
-------------------------|--------------------------|--------------------------|

---7-6-4---7-------------|----7-5-4---5---0---2-----|----5-4-2-0-4-0-----0-----|
-4-------7---7-5-4-7-4---|--0-------7---7---4---4-2-|--0-------------4-2---2-0-|
-----------------------6-|--------------------------|--------------------------|
-------------------------|--------------------------|-------------------------|
-2-----------------------|--------------------------|--6-----------------------|
-------------------------|--------------------------|----------4-------0-------|

---4-2-0---2-------------|----0---------------------|--------------2-4-5-4-5-2-|
---------4---4-2-0-4-0---|------2-0---2-------------|--------2-0-4-------------|
-2---------------------2-|--1-------2---2-1---2-----|------2-------------------|
-------------------------|------------------4---4-2-|--1-4---------------------|
---------2-------6-------|----------4-------0-------|--2-------6-------2-------|
-2-----------------------|--0-----------------------|--------------------------|

--------7-12-------------12-11-|--12-7---0---0---0---0---0-|
--9---9------12-9--------------|-------9-------------------|
----9-------------9---11-------|-----------7---6---7---4---|
--------------------9----------|---------------------------|
--7-------11-------------------|---------------------------|
--------------------7----------|--0------------------------|

------5-----0---0---0---0-|-----4-----0---0---0---0-|------2-----0---0---0---0-|
----5---5-----------------|---5---5-----------------|----5---5-4---5---7---9---|
--6-------6---4---6---2---|-4-------4---2---4---1---|--2-----------------------|
--------------------------|-------------------------|--------------2-----------|
--------------------------|-------------------------|------------------6-------|
--0-----------------------|-0-----------------------|--2-------------------9---|

--------7----4----|------5--4-5-2p4h2p4-2--|-0--12-11-9----12----12---12----12-|
--10---------0----|-2----------------------|------------12----10----9----------|
--8---------------|-2----------------------|-----------------------------11----|
--9----------2----|-2----------------------|-----------------------------------|
------------------|-0-----------2----------|-11--------------------------------|
--7----------0----|------------------------|-0---------------------------------|

----0--------0---0---0---0-|--------------7-11-12-7---0-|-------------------||
---------------------------|------0-----9-----------9---|-------------------||
--9---8--------------------|----1---8-9-----------------|-------------------||
--------11-9---7---6---4---|--2-------------------------|-------------------||
---------------------------|----------------------------|-------------------||
---------------------------|----------------------------|--0----------------||

*******************************************************************************

EADGBE Resources

Create Chord Sheets Guitar Tuner Songs Videos Tuning Map Create Variation
           _____
          q o o p
          q o!o p
          d o!o b
           \!!!/
           |===|
           |!!!|
           |!!!|
           |!!!|              ____    ______  ____    ____
           |!!!|             /\  _`\ /\__  _\/\  _`\ /\  _`\
           |!!!|             \ \ \L\_\/_/\ \/\ \ \/\ \ \ \L\ \
          _|!!!|__            \ \ \L_L  \ \ \ \ \ \ \ \ \  _ <'
        .+=|!!!|--.`.          \ \ \/, \ \ \ \ \ \ \_\ \ \ \L\ \
      .'   |!!!|   `.\          \ \____/  \ \_\ \ \____/\ \____/
     /     !===!     \\          \/___/    \/_/  \/___/  \/___/
     |    /|!!!|\    ||
      \   \!!!!!/   //
       )   `==='   ((
     .'    !!!!!    `..
    /      !!!!!      \\
   |       !!!!!       ||
   |       !!!!!       ||
   |       !!!!!       ||
    \     =======     //
hjw  `.    ooooo    .;'
       `-._______.-'