Artist: Johann Sebastian Bach, Title: BWV 1006a Minuet II

E

A

D

G

B

E

Johann Sebastian Bach - BWV 1006a Minuet II

Found on:
#----------------------------------PLEASE NOTE--------------------------------#
#This file is the authors own work and represents their interpretation of the#
#song. You may only use this file for private study scholarship or research.#
#-----------------------------------------------------------------------------#
===============================================================================
          Title: Minuett II from Suite in E Major BWV 1006a
         Artist: Johann Sebastian Bach
 Transcribed by: Kevin J. Manges fretmeister@bigfoot.com
                 (formerly braumeister@centuryinter.net and Kevinm2556@aol.com)
Downloaded from: http://members.tripod.com/~Braumeister/index.htm
                 Also see Menuett I as well as the MIDI/MP3 at site above.
         Update: 24 AUG 00 (1st draft)
===============================================================================


Menuett II from BWV 1006a

Transcribed by Kevin J. Manges                                  J.S Bach


(1)                                                          
E||-------------------|-----------------|--------------------|
B||--0----------------|-----------------|--0-----------------|
G||*-1----2--1--------|--4--------------|--1-----2--1--------|
D||*-2----------4--2--|--4--6--7--------|--2--4--------4--2--|
A||-------------------|--6--------------|--------------------|
E||-------------------|-----------------|--------------------|
     1    3p 1  4  2     1 4/  4           1  4  3  1  4  2  
     2                   1                 2  
                         3



(4)                                       IV-----------------
|------------------|-----------------0--|--------------------|
|------------------|-----------0--0-----|--4--------4--4--7--|
|--2---------------|-----1--1-----------|-----4--4-----------|
|--1--2--4---------|--2-----------------|--------------4-----|
|--2----------2----|--------------------|--------6-----------|
|------------------|--------0-----4-----|--7-----------------|
   3                                       1              4
   1  4  4                                 4               
   2                                                     


(7)                                                                            
|-----4/-5-----7----|--5--4--5--4--2-----|-------------------|-----------------|
|--7--------7-------|-----------------5--|--0----------------|-----------------|
|-------------------|--------------------|--1----2--1--------|--4--------------|
|-------------------|--2-----------------|--2----------4--2--|--4--6--7--------|
|--6-----------6----|--------2-----------|-------------------|--6--------------|
|--------7----------|--------------0-----|-------------------|-----------------|
   4  1/ 1  4  4       4  3  4
   3     3     2       1     1                                  


(11)                                         IV----------------                  
|--0-----------------|--0-----------------|-----------------7--|
|-----------------0--|-----0--2-----------|-----4--4--7--7-----|
|--1--------1--1-----|--3-----------------|--4-----------------|
|-----2--2-----------|-----------2--4-----|--------------------|
|--4-----------------|--------------6--4--|--6-----------------|
|--------------------|--2-----------------|--------------------|
   1  2                 4     3  1/ 1  1     3  1     4     4
   4                    2           3             


(14)                                                                          
|--------0--4-----2--|--0-----------------|---------------|-------------------|
|--2--4--------------|-----4--2--0--------|--0------------|--4----5--4--------|
|--------------3-----|-----------------3--|-------------*-|*-4----------6--4--|
|--2-----------4-----|--------1-----4-----|-------------*-|*-7----------------|
|--------4-----------|--2-----------------|--2------------|-------------------|
|--------------------|--------------2-----|---------------|-------------------|
   1  4  3  4  2  2     1  4\ 4     4  3     1               1    2  1  3  1
   1           3              1     1                        1
                                                             4


(18)                   IV------------  II-----------------    
|--0-----4--5--7--4--|--------------------|--2--4--5--2-------|
|--0--7--------------|--7--6--7--6--4--2--|-------------------|
|--------------------|--------------4-----|--2----------------|
|--6-----------0-----|--------6-----------|--------------4----|
|--------7-----------|--4-----------------|-------------------|
|--------------------|--------------------|--------2----------|
   3  4  1  1  4  1     4\ 4/ 4\ 4  1\ 1     1     4     3
         3              1     3     1        1     1


(21)                                            IV-----------  
|--------7--4--5-----|--4-----------------|--7--4--5-----------|
|-----------------7--|-----------0--------|-----------7-----6--|
|-----6--------------|-----6--7--------6--|--------------4-----|
|--3-----------------|--------------3-----|--------4-----6-----|
|--------------------|--------------------|--------------4-----|
|--------------------|--------------------|--------------------|
   1  3  4  1  2  4     1  3  4     1  3     4  1  2  4  1  4
                                                   1     3
                                                         1

(24)II                 IV--------                           
|--2-----------2--4--|--5----7--5--4-----|--4/-5--7-----------|
|-----2-----2--------|----------------7--|--0-----------0-----|
|--2-----------------|--4----------------|-----------7-----7--|
|--------4-----2-----|--4----------------|--------------6-----|
|--------------------|--6----------------|--7-----------------|
|--2-----------------|-------------------|--------------------|
   1  1  3  1  1  3     2    4  2  1  4     1/ 1  4  3  2  3
   1           1        1                   3
   1                    1
                        3  


(27)     II--                                     IV----------
|-----0--5--2--4--0--|--------0-----------|--4----5--4--------|
|--2-----4-----0-----|--4--2-----4--2--0--|--5----------7--5--|
|--2-----2-----------|--------------------|--4----------------|
|--6-----4-----2-----|--------------1-----|--2----4-----6-----|
|--------------------|--2-----4-----------|-------------------|
|--------------------|--------------------|-------------------|
   1     4     4        4  2  3  4  2        3    4  1  4  2
   1     3     1        1           1        4    1     3
   4     1                                   2 
         2                                   1


(30)IV-----                                              
|---------7--------|--------------------|--0------------||
|--7-5-4--4--------|-----0--2--------4--|--0------------||
|------------------|-----------2--------|--1-----------*||
|--7------4--------|--------------4-----|--------------*||
|---------0--------|--------0-----2-----|---------------||
|------------------|--4-----------------|--0------------||
   4 2 1  4           3  0  1  1  3  4     1
   3                        4     1
           
Bach: Menuett II from BWV 1006a

EADGBE Resources

Create Chord Sheets Guitar Tuner Songs Videos Tuning Map Create Variation
           _____
          q o o p
          q o!o p
          d o!o b
           \!!!/
           |===|
           |!!!|
           |!!!|
           |!!!|              ____    ______  ____    ____
           |!!!|             /\  _`\ /\__  _\/\  _`\ /\  _`\
           |!!!|             \ \ \L\_\/_/\ \/\ \ \/\ \ \ \L\ \
          _|!!!|__            \ \ \L_L  \ \ \ \ \ \ \ \ \  _ <'
        .+=|!!!|--.`.          \ \ \/, \ \ \ \ \ \ \_\ \ \ \L\ \
      .'   |!!!|   `.\          \ \____/  \ \_\ \ \____/\ \____/
     /     !===!     \\          \/___/    \/_/  \/___/  \/___/
     |    /|!!!|\    ||
      \   \!!!!!/   //
       )   `==='   ((
     .'    !!!!!    `..
    /      !!!!!      \\
   |       !!!!!       ||
   |       !!!!!       ||
   |       !!!!!       ||
    \     =======     //
hjw  `.    ooooo    .;'
       `-._______.-'