Artist: Johann Sebastian Bach, Title: BWV 1007 Allemande

E

A

D

G

B

E

Johann Sebastian Bach - BWV 1007 Allemande

Found on:
Works For Solo Cello And Solo Violin(2004)
updated version + original version
*****************************************************************************

(updated version)

J.S. Bach Allemande from Suite n.1 for solo cello BWV 1007

Arranged for guitar. Low D tuning (DADGBE) 4/4
Revised by Francisco Galera
Revised and reformatted by Benjamin Leperchey (May 2001)

------------------------------    80 columns       -----------------------------

         |       |       |       |         |       |       |       |       
e||--2-|-2---------0-----------------2-3-|-5-2-------------------------0-2-|
B||----|-------------3-2-3-----2-3-5-----|-----3-2-3---------------2-3-----|
G||*---|-2-----------------3-4-----------|-----------4-2-0-----2-4---------|
D||*---|-0---------------------------0---|-4---------------4-5---------0---|
A||----|---------------------------------|---------------------------------|
D||----|---------0-----------------------|---------0-------0---------------|


   |       |       |       |         |       |       |       |       
e|-3-------------------------2-3-0-|-2---------------------2-3-2-0---|
B|---5-3-2-3---2-3-----2-3-5-------|---3-3-------------------------3-|
G|-----------4-------2-------------|-------2-2-----------------------|
D|-2---------------2---------------|-----------4-4-0-0---------------|
A|-----------------0-----------4---|---------------------------------|
D|-------------2-------------------|-0---------------0-----------4---|


   |       |       |       |         |       |       |       |       
e|-0-2-3-0---------------3-2-0-----|-------------------------------0-|
B|---------3-2-3-5-------------3-2-|-3-----------------------0-3-2---|
G|-----------------3---------------|---4-4---------------------------|
D|---------------------------------|-------4-4-------------4---------|
A|-----------------------------1---|-2---------5-5-2-2-----------1---|
D|-5-----------2---4---------------|---------------------------------|


   |       |       |       |         |       |       |       |       
e|-----------4-------4-------------|---------------------------2-3-0-|
B|-3-2-----3---3-2-3-----2-3-----3-|-2-------2---3---2---2-3-5-------|
G|-----4-2-------------4-----4-----|-----2-4---2---4---2-------------|
D|-----------------------------2---|---------------------------------|
A|-2-----------2-------------------|-0---------------0-----------4---|
D|-----------------2---------------|---------------------------------|


(9)|       |       |       |         |       |       |       |       
e|-2-------2-------------0-2-4-5-2-|-4-------4-0-2-5-4-0-5-2-4-0-7---|
B|-----------3-5-2-3---3-----------|---------------------------------|
G|---2---2-----------4-------------|---4---4-----------------------7-|
D|-----0---------------------------|-----2---------------------------|
A|-------------------------1-------|---------------------------------|
D|-0---------------0---------------|-2---------------------------6---|


   |       |       |       |         |       |       |       |       
e|---------------------------------|---------------------------------|
B|------10-----------5-3---2---5---|---------------------------------|
G|-6-------9-7-6-4-2-----4---2---0-|-------7-----------2-0-------2---|
D|---------------------------------|-4-------7-5-4-2-0-----2-4-------|
A|-0---------------0-----------4---|---------------------------0---4-|
D|---------------------------------|-----------------0-----------0---|


   |       |       |       |         |       |       |       |       
e|-------------------0-4-5-7-0-10--|--10-9-7-9-5-0-5-----0-3-2-----0-|
B|-------------0-2-3---------------|-------------------2-------------|
G|---------1-2---------------------|-----------------2---------------|
D|---0-2-4-----0---2---------------|---------------------------------|
A|-2-------------------------------|-0---------------0-----------4---|
D|-0-----------------------------6-|---------------------------------|


   |       |       |       |         |       |       |       |       
e|-202---0-------5-4-7-0-----------|---------0-4-5-0-----------------||
B|---------3-2-0---------3-2-------|-------2-------------------------||
G|-2-------------------------2---1-|-----2-----------6--------------*||
D|-0---------------0-------0---2---|---2---------------7------------*||
A|---------------------4-----------|-0-------------------0-----------||
D|---------------------------------|---------------------------------||





(17)          |       |       |         |       |       |       |       
e||--0-|-0-----------------------------|-----------0-2-3-5-2-0---------5-|
B||----|-2-------2-3-5-----2-3-5-2-----|-----------------------3---0-----|
G||*---|-2-------------2-4---------2---|-----7-6-7---------------5---5---|
D||*---|-----------------------------5-|-4-7-----------------------------|
A||----|-------0-------------------4---|-5-------------------------------|
D||----|-------------------------------|---------0-------0-----------4---|


   |       |       |       |         |       |       |       |       
e|---------3---------3-2-3-5-2-3-0-|---------2---------------0-3-2-0-|
B|---------------------------------|-4---2-0-----------0-2-3---------|
G|-4---2-0-------0-2---------------|-----------2-0---0---------------|
D|-----------2-4-------------------|---------------4-----------------|
A|-----------------3-----------0---|-2---0---2-------------------0---|
D|-5---4---2-----------------------|-------------1---2---------------|


   |       |       |       |         |       |       |       |       
e|-5-------------------2-5-3-2-----|-323---2-0-----------1-0-1-3-5-3-|
B|-----------0-------0-------------|-0---------3-1-0-1---------------|
G|-------0-2---5-------------------|-------------------2-------------|
D|-----4---------2-1-------0-------|-2-------------------------------|
A|-3-----------0---2---------------|-----------------0-----------3---|
D|---------------------------------|-------------2-------------------|


   |       |       |       |         |       |       |       |       
e|---0-2---------------0-2-2-----0-|-0-2-3-2-3-------0---------------|
B|-4-----0-----------0-----0-------|-0---------3-2-3---0-------------|
G|---------5-2-0---0---------------|-0-------------------2-0---------|
D|---------------4-----------------|-2-----------------------4-----2-|
A|-2-----------0---2---------------|-------------0-----------0-------|
D|---------------------------------|---------2-----------------------|


   |       |       |       |         |       |       |       |       
e|-------3-2-0---0-------7---7-8---|-7-------7-------0-----7---------|
B|-----2-------3---7-8-10--10---10-|----------10-8-7---7-8--10-----8-|
G|---2-----------------------------|-----7---0-------0---------------|
D|-0-------------------------------|---------------------------------|
A|-----------------------------9---|-----------------------------7---|
D|-0---------------0---------------|---------------------------------|


   |       |       |       |         |       |       |       |       
e|---------------0-------2-5-3-2---|-3-------3---------0-2-3---------|
B|10------10-8-7---3-2-3-----------|-----3-----0-2-3-2---------------|
G|-----9-----------4---------------|-------------------------2-0-----|
D|---------------------------------|---------2-------------------4-2-|
A|---------9-----------------------|-----------------0---------------|
D|---------------------------------|---------------------------------|



   |       |       |       |         |       |       |       |       
e|-------0-3-0-----2-----------0-4-|-5-------------2-3-----------0-3-|
B|-----2-------2---3-------0-3-----|---5---0---1-3-----3-0-----0-----|
G|---2-----------2-2-----2---------|-----6---2-------------2-0-------|
D|-0---------------------------0---|---------------------------------|
A|---------------------------------|-4-----------3---2---------------|
D|-----------------0---------------|-----5---4-----------4---2---5---|


   |       |       |       |         |       |       |       |       
e|-------7-5-----------------------|---------------9-10--------------||
B|-2-5-8-------------3---------3-2-|-3-------3-7-10----107-----------||
G|---------------0-----------------|-------2---------------7---------||
D|-----------------4---2-0---2-----|---0-4-------------------0-------||
A|-------------------------0-------|---------------------------------||
D|-------------4---5---------------|-0---------------0---------------||


**********************************************************************
**********************************************************************

(original version)

J.S. Bach Allemande from Suite n.1 for solo cello BWV 1007

Arranged for guitar. Low D tuning 4/4

Revised by Francisco Galera

note duration: w=1 h=1/2 q=1/4 e=1/8 s=1/16 t=1/32 E=3/16.


 s  E s s s s s s s s s s s s  s s s s s s s s   s s s s s s s  
|--|----------------------2-3-|5-2-------------------------0-2-|
|7-|7-7-5-3-2-3-----2-3-5-----|----3-2-3---------------2-3-----|
|--|------------2-4-----------|----------4-2-0-----2-4---------|
|--|7---------------------0---|4---------------4-5---------0---|
|--|5-------------------------|--------------------------------|
|--|--0-------0---------------|--------0-------0---------------|
    E E       E           s    E       E       E           s    


 s s s s s s s s   s s s s s s s  s s s s s         s s s s s  
|3-------------------------2-3-0-|2-----------------2-3-2-0---|
|--5-3-2-3---2-3-----2-3-5-------|--3-3---------------------3-|
|----------4-------2-------------|------2-2-------------------|
|2---------------2---------------|----------4-4-0-0-----------|
|----------------0-----------4---|----------------------------|
|------------2-------------------|0---------------0-------4---|
 E           e   E           s    E         s s s E       s    


 s s s s s s s s E s s s s s  s s s               s s s s  
|0-2-3-0-----------3-2-0-----|--------------------------0-|
|--------3-2-3-5---------3-2-|3-------------------0-3-2---|
|----------------3-----------|--4-4-----------------------|
|----------------------------|------4-4-0-0-----4---------|
|------------------------1---|2-------------2-2-------1---|
|5-----------2---4-----------|----------------------------|
 E           e   E       s    E     s s s s s E s     s    


 s s s s s s s s s s s s s s   s  e s s s s s s s s s s s s s s  
|----------4-------4-------------|------------------------2-3-0-|
|3-2-----3---3-2-3-----2-3-----3-|2-----2---3---2---2-3-5-------|
|----4-2-------------4-----4-----|--2-4---2---4---2-------------|
|----------------------------2---|------------------------------|
|2-----------2-------------------|0-------------0-----------4---|
|----------------2---------------|------------------------------|
 E           e   E           s    E             E           s    


 s s   s s s s s s s s s s s s s  s s   s s s s s s s s s s s s s  
|2-------2-------------0-2-4-5-2-|4-------4-0-2-5-4-0-5-2-4-0-7---|
|----------3-5-2-3---3-----------|--------------------------------|
|--2---2-----------4-------------|--4---4-----------------------7-|
|----0-------------------1-------|----2---------------------------|
|--------------------------------|--------------------------------|
|0---------------0---------------|2---------------------------6---|
 E   s           E       e        E   s                       s    


 E s s s s s s s s s s s s s  E s s s     s s s       s    
|----------------------------|----------------------------|
|-10-----------5-3---2---5---|----------------------------|
|6---9-7-6-4-2-----4---2---0-|--7-----------2-0-------2---|
|----------------------------|4---7-5-4-2-0-----2-4-------|
|0-----------0-----------4---|----------------------0---4-|
|----------------------------|0-----------0-----------0---|
 E           E           s    E       s s E     s s s s s  


             s s s s s s s s e  s s s s s s s s s s s s E    
|------------------0-4-5-7-0-10|--109-7-9-5-0-5-----0-3-2---|
|------------0-2-3-------------|------------------2---------|
|--------1-2-------------------|----------------2-----------|
|--0-2-4-----0---2-------------|----------------------------|
|2-----------------------------|0---------------0---------4-|
|0---------------------------6-|----------------------------|
 s s s s s s e   E           s  E               E s       s  


 s t t e s s s s s s s s s s            s s s s s s s s    
|0-2-0-2-0-------5-4-7-0---------|----------0-4-5-0-------|
|----------3-2-0---------3-2-----|--------2---------------|
|--2-------------------------2---|1-----2-----------6----*|
|--0---------------0-------0---2-|----2---------------7--*|
|----------------------4---------|--0-------------------0-|
|--------------------------------|------------------------|
   E               e   e   e s s  s E s                 E  


  s  q s s s s s s s s s s s s  s s s s s s s s s s s s s s s s  
|---|--------------------------|----------0-2-3-5-2-0---------5-|
|-5-|5-------5---------5-------|----------------------3---0-----|
|*--|6-6-6-7-----4-6-7---6-----|----7-6-7---------------5---5---|
|*--|7---------7-----------7-5-|4-7-----------------------------|
|---|--0-------0-----------4---|5-------------------------------|
|---|--------------------------|--------0-------0-----------4---|
       e       e           e    e       e       e           e    


 e s s s     s s s s s s s s s  e s s s s s   s s s s s s s s  
|------3---------3-2-3-5-2-3-0-|------2---------------0-3-2-0-|
|------------------------------|4-2-0-----------0-2-3---------|
|4-2-0-------0-2---------------|--------2-0---0---------------|
|--------2-4-------------------|------------4-----------------|
|--------------3-----------0---|2-0---2-------------------0---|
|5-4---2-----------------------|----------1---2---------------|
 e e   e s s   e           e    e e   e   e s e           e    


 e   s s s s     s s s s s  t t e s s s s s s s s s s s s s  
|5-----------------2-5-3-2-|3-2-3-2-0-----------1-0-1-3-5-0-|
|--------0-------0---------|0---------3-1-0-1---------------|
|----0-2---5---------------|------------------2-------------|
|--4---------2-1-------0---|2-------------------------------|
|3---------0---2-----------|----------------0-----------3---|
|--------------------------|------------2-------------------|
 e s       e s E       e    t           e   e           e    


 s s s s s s s   s s s s  E s  E s s s s s s s s s s s s    
|--0-2---------------0-2h-2-0-|0-2-3-2-3-------0-----------|
|4-----0-----------0------0---|0---------3-2-3---0---------|
|--------5-2-0---0------------|0-------------------2-0-----|
|--------------4--------------|2-----------------------4-2-|
|2-----------0---2------------|------------0-----------0---|
|-----------------------------|--------2-------------------|
 e           e s e             E       e   e           e s  


 s s s s s s s s s s s s s s s s  q e s s s s s s s s E   s 
|------3-2-0---0-------7---7-8---|7---7-------0-----7------|
|----2-------3---7-810--10----10-|-----10-8-7---7-8--10---8|
|--2-----------------------------|--7-0-------0------------|
|0-------------------------------|-------------------------|
|----------------------------9---|----------------------7--|
|0---------------0---------------|-------------------------|
 e s             e           e                          e   


  q e s s s s s s s s s s s  e e s s s s s s s s s s      
|-----------0-------2-5-3-2-|3---3---------0-2-3---------|
|10--10-8-7---3-2-3---------|--3---0-2-3-2---------------|
|---9---------4-------------|--------------------2-0-----|
|---------------------------|----2-------------------4-2-|
|-----9---------------------|------------0---------------|
|---------------------------|----------------------------|
      e       e                  e       e           s s  


   s s s s s s s E s s s s s  s s e s s s s s s s s s s s s s  
|------0-3-0-----2-------0-4-|5-------------2-3-----------0-3-|
|----2-------2---3---0-3-----|--5---0---1-3-----3-0-----0-----|
|--2-----------2-2-2---------|----6---2-------------2-0-------|
|0-----------------------0---|--------------------------------|
|----------------------------|4-----------3---2---------------|
|----------------0-----------|----5---4-----------4---2---5---|
 e               e       e    e       e   e   e   e   e   e    


 s s s s E   s   s         s    s       s s s s s s s s     
|------7-5---------------------|--------------9-10--------||
|2-5-8-----------3---------3-2-|3-------3-7-10----107-----||
|------------0-----------------|------2---------------7---||
|--------------4---2-0---2-----|--0-4-------------------0-||
|0---------------------0-------|--------------------------||
|----------4---5---------------|0---------------0---------||
 e         e   e   s s e s   s  e s s s         e       q   

EADGBE Resources

Create Chord Sheets Guitar Tuner Songs Videos Tuning Map Create Variation
           _____
          q o o p
          q o!o p
          d o!o b
           \!!!/
           |===|
           |!!!|
           |!!!|
           |!!!|              ____    ______  ____    ____
           |!!!|             /\  _`\ /\__  _\/\  _`\ /\  _`\
           |!!!|             \ \ \L\_\/_/\ \/\ \ \/\ \ \ \L\ \
          _|!!!|__            \ \ \L_L  \ \ \ \ \ \ \ \ \  _ <'
        .+=|!!!|--.`.          \ \ \/, \ \ \ \ \ \ \_\ \ \ \L\ \
      .'   |!!!|   `.\          \ \____/  \ \_\ \ \____/\ \____/
     /     !===!     \\          \/___/    \/_/  \/___/  \/___/
     |    /|!!!|\    ||
      \   \!!!!!/   //
       )   `==='   ((
     .'    !!!!!    `..
    /      !!!!!      \\
   |       !!!!!       ||
   |       !!!!!       ||
   |       !!!!!       ||
    \     =======     //
hjw  `.    ooooo    .;'
       `-._______.-'