Artist: Johann Sebastian Bach, Title: BWV 1007 Courante

E

A

D

G

B

E

Johann Sebastian Bach - BWV 1007 Courante

Found on:
Works For Solo Cello And Solo Violin(2004)
Cello Suite No 1 in G - Courante - JS Bqach (1685-1750)
1st version - Frances Galera revised by Curzio Vasapollo
2nd version - Frances Galera chords instead of intervals
******************************************************************************

J.S. Bach Courante from Suite n.1 for solo cello BWV 1007
 
Arranged for guitar - low D tuning (DADGBE) - 3/4
 
Revised by Francisco Galera
Re-revised by Curzio Vasapollo (11 Mar 2002)
 
I am also learning the Cello and some of these pieces actually sound better
on the guitar because of the polyphony. Not all though ;)
 
note duration: w=1 h=1/2 q=1/4 e=1/8 s=1/16 t=1/32
 

 e  q e | s s s s s s  q e | s s e e  q e | s s s s s s  q e | s s s s s s 
|--|------2-3-5-3-2-0|-2------------|-------0-2-3-2-0--|---------------0-2|
|3-|3----------------|-------3-5-7--|-0---------------3|-2---------2-3----|
|--|--2--------------|---2---------7|---0--------------|---2---2-4--------|
|--|----0------------|-----0--------|------------------|------------------|
|--|-----------------|--------------|------------------|-----0------------|
|--|----0------------|-----0--------|-----5------------|------------------|
        e                  e              e                  e             
 

 s s s s s s s s s s s s  s s s s s s s s s s s s  s s s s e   | e  
|3-2-3-0-3-2-3-0---3-2-0|-2---2---2---2-----2-0--|---0-5-----------|
|-----------------------|---5---3---5---3-------3|-2-------3-----2-|
|----------------2------|-----------------0------|-------2---------|
|2-------0--------------|-0----------------------|-----------4-2---|
|----------------4------|---------4-------2------|-0-----------0---|
|-----------------------|------------------------|---------5-------|
 q       q       q        q       q       q        q       q e q    
 

 q s s s s s   q e e s s s s s s | e e s s s s s s s s s s s s s s | s s s 
|--2-0--------|7---------5------|--5-4-2-0-5-0-2--|-----------------------|
|3-----3-2-0--|--9---7-9--------|----------------2|3-2-3---3-2-3-0--------|
|-------------|----9-------6-4-2|-----------------|------4-----------7-6-4|
|4-----------7|-----------------|2----------------|-----------------------|
|-------------|----7------------|----------4------|2-------0-------7------|
|0------------|-----------------|----2------------|----------------6------|
 q           s     e             e   e     e       q       q       q       
 

 s s s s s s s s | s s s s s s s e s s s s s s s s s s s s s s s s s s 
|-----------------------|5-4-2-0-5-4-2-0------|----------------------0|
|2-0-2-----0-2-----2-0--|----------------3-2-0|--0---2---0---3---0----|
|------2-6-----2-------2|---------------------|2---2---2---2---2---2--|
|----------------0------|----0-----0---2------|-----------------------|
|0----------------------|--------4------------|0-------0-------0------|
|--------6-------4------|2-----------------2--|-----------------------|
 q       q       q       e   e   e e   e   e   q       q       q       
 

 s s s s s s s s s s s s s s s s |     s E   s  s s s s s s s s | e  |  
|------2-------4-------5|---------------------|-0---2-0------------|---|
|--0-------0-------0----|3-2-0---------3-2---0|---3-----3-2-0------|---|
|2---2---2---2---2---2--|------2-1------------|---------------2---1|--*|
|-----------------------|----------4-2-----0--|-------------0---2--|--*|
|0-------0-------0------|2--------------------|-4---0---2----------|-0-|
|-----------------------|----0---2------------|--------------------|---|
 q       q       q       e   e   e s e     e    e   e   e   e   e    h  
 

  e  q e e s s s s s s q e e   s s s     | s s s s s s s e e q e | s s s s s s 
|-0|-0----------------|5----------------|----0-2-3-2-0-----5|2-----2-0-3-2-0--|
|--|---2---0-2-3-2-0--|--2--------------|--3-----------3-2--|--3-------------3|
|*-|-----2-----------2|----2---0-2-0----|-------------------|-----------------|
|*-|------------------|------4-------4-2|4------------------|----0------------|
|--|-----0------------|----0------------|--------2-------0--|-----------------|
|--|------------------|-----------------|0------------------|----0------------|
         e                 e s       s s q       q       q       e             
 
 q e e s s s s s s s e s s s s s s s s s s s s s s s s s s s s 
|0-----0-2-3-2-0----|-----------------|------0---------------0|
|--2-------------3-2|3-----3-2-5-3-2-0|1-0-1---------5-8-7-8--|
|----3--------------|--4--------------|--------5-4-5----------|
|-------------------|-----------------|-----------------------|
|------------1------|----2------------|------------7----------|
|----5--------------|-----------------|2----------------------|
     e       e           e             e           e           
 

  e     s s s s s s s  | e s s s E e |    s s s s s s  e    s s s s s s
|-6------------------|---2-------------|----------2-3|-5-----------------|
|-------8-7-5-----5--|-----5-3-2-------|--0-2-3-5----|---------2-3-2-----|
|---6---------7-6---3|-----------4-3-3-|-------------|---5---4-------4-2-|
|-----4--------------|-0---------------|-------------|-----0-------------|
|--------------------|-----------------|2------------|-------------------|
|--------------------|---------2---4---|-------------|-----0-------------|
      e                e       e   q    q                  e             
 

 e     s s s s s s s s s s s s s s s s s s  s s s s s s s s s s s s 
|-----------------|----0---0-----------0--|-----0---0-----------0--|
|----------0-2-3--|--3---3---3---3---3---3|---2---2---2---2---2---2|
|4-----0-2-------4|1-----------1---1------|-0-----------0---0------|
|--5--------------|-----------------------|------------------------|
|-----------------|-----------------------|-0---------------0------|
|----5------------|2---------------2------|------------------------|
   e               e               e        e               e       
 

 s s s   | s s s s s s s  s s e s s s s s q    e s s  
|------------------5-3-2|---0-2-3---3-2------|------------------|
|----------------0------|-2-------------5-7--|---7-5-8-7-5------|
|--2-4-5---5-4-2--------|---------2----------|-------------7---6|
|4-------0--------------|-------------------0|------------------|
|-----------------------|-0-------4----------|-------7-------0--|
|0-------4-------5------|--------------------|-5----------------|
 e       e       e                        e e  e    
 

 e |       |     s |      s |    s  |     s |     s s s s s  
|-----------------------|------------------------|3-2-0---------3-2---0|
|-----------------------|-------0-------2-------3|------3-2-0----------|
|--------------0-------2|------------------------|------------2-----0--|
|0-2-0-4-0-2-0---0-2-0--|-0-2-0---0-2-0---0-2-0--|---------------------|
|-----------------------|------------------------|--------0------------|
|0-------0-------0------|-0-------0-------0------|2--------------------|
 e s s e s s s e   s s    e    s s e   s s e   s s e       e    
 

 s s s s s s s s s s s s s s s s s s s s s s s s  s s s s   s s s s e  e   
|5-3-5-2-5-3-5-2---5-3-2|3-2-3-0-3-2-3-0---3-2-0|-2-0-2-----2-0------|---||
|----------------0------|-----------------------|-------3-------3---2|-3-||
|-----------------------|----------------2------|---------0-------2--|-2-||
|4-------2-------0------|2-------0--------------|-0------------------|-4-||
|-----------------------|----------------0------|-----4---2-------0--|---||
|-----------------------|-----------------------|-------------5------|-0-||
 e       e       e       e       e       e        e   e   e e   e      e   
 
    
******************************************************************************
******************************************************************************

J.S. Bach Courante from Suite n.1 for solo cello BWV 1007

Arranged for guitar. Low D tuning 3/4

Revised by Francisco Galera

***********************************************
measure 9: 5th note G# 2nd string 9th fret
corrected from G - Curzio Vasapollo 11 Mar 2002
***********************************************

note duration: w=1 h=1/2 q=1/4 e=1/8 s=1/16 t=1/32


 e  q e | s s s s s s  q e | s s e e  q e | s s s s s s  q e | s s s s s s 
|--|------2-3-5-3-2-0|-2---2--------|-------0-2-3-2-0--|---------------0-2|
|3-|3---3------------|-------3-5-7--|-0---0-----------3|-2---2-----2-3----|
|--|--2--------------|---2---------7|---0--------------|---2---2-4--------|
|--|----0------------|-----0--------|------------------|------------------|
|--|-----------------|--------------|------------------|-----0------------|
|--|----0------------|-----0--------|-----5------------|------------------|
        e                  e              e                  e             


 s s s s s s s s s s s s  s s s s s s s s s s s s  s s s s e   | e  
|3-2-3-0-3-2-3-0---3-2-0|-2---2---2---2-----2-0--|---0-5-----------|
|-----------------------|---5---3---5---3-------3|-2-------3-----2-|
|----------------2------|-----------------0------|-------2---------|
|2-------0--------------|-0----------------------|-----------4-2---|
|----------------4------|---------4-------2------|-0-----------0---|
|-----------------------|------------------------|---------5-------|
 q       q       q        q       q       q        q       q e q    


 q s s s s s   q e e s s s s s s | e e s s s s s s s s s s s s s s | s s s 
|--2-0--------|7---7-----5------|--5-4-2-0-5-0-2--|-----------------------|
|3-----3-2-0--|--9---7-9--------|----------------2|3-2-3---3-2-3-0--------|
|-------------|----9-------6-4-2|-----------------|------4-----------7-6-4|
|4-----------7|-----------------|2----------------|-----------------------|
|-------------|----7------------|----------4------|2-------0-------7------|
|0------------|-----------------|----2------------|----------------6------|
 q           s     e             e   e     e       q       q       q       


 s s s s s s s s | s s s s s s s e s s s s s s s s s s s s s s s s s s 
|-----------------------|5-4-2-0-5-4-2-0------|----------------------0|
|2-0-2-----0-2-----2-0--|----------------3-2-0|--0---2---0---3---0----|
|------2-6-----2-------2|---------------------|2---2---2---2---2---2--|
|----------------0------|----0-----0---2------|-----------------------|
|0----------------------|--------4------------|0-------0-------0------|
|--------6-------4------|2-----------------2--|-----------------------|
 q       q       q       e   e   e e   e   e   q       q       q       


 s s s s s s s s s s s s s s s s |     s E   s  s s s s s s s s | e  |  
|------2-------4-------5|---------------------|-0---2-0------------|---|
|--0-------0-------0----|3-2-0---------3-2---0|---3-----3-2-0------|---|
|2---2---2---2---2---2--|------2-1------------|---------------2---1|--*|
|-----------------------|----------4-2-----0--|-------------0---2--|--*|
|0-------0-------0------|2--------------------|-4---0---2----------|-0-|
|-----------------------|----0---2------------|--------------------|---|
 q       q       q       e   e   e s e     e    e   e   e   e   e    h  


  e  q e e s s s s s s q e e   s s s     | s s s s s s s e e q e | s s s s s s 
|-0|-0----------------|5----------------|----0-2-3-2-0-----5|2---2-2-0-3-2-0--|
|--|---2---0-2-3-2-0--|--2--------------|--3-----------3-2--|--3-------------3|
|*-|-----2-----------2|----2---0-2-0----|-------------------|-----------------|
|*-|------------------|------4-------4-2|4------------------|----0------------|
|--|-----0------------|----0------------|--------2-------0--|-----------------|
|--|------------------|-----------------|0------------------|----0------------|
         e                 e s       s s q       q       q       e             

 q e e s s s s s s s e s s s s s s s s s s s s s s s s s s s s 
|0---0-0-2-3-2-0----|-----------------|------0---------------0|
|--2-------------3-2|3---3-3-2-5-3-2-0|1-0-1---------5-8-7-8--|
|----3--------------|--4--------------|--------5-4-5----------|
|-------------------|-----------------|-----------------------|
|------------1------|----2------------|------------7----------|
|----5--------------|-----------------|2----------------------|
     e       e           e             e           e           


  e     s s s s s s s  | e s s s E e |    s s s s s s  e    s s s s s s
|-6---6--------------|---2-------------|----------2-3|-5---5-------------|
|-------8-7-5-----5--|-----5-3-2-------|--0-2-3-5----|---------2-3-2-----|
|---6---------7-6---3|-----------4-3-3-|-------------|---5---4-------4-2-|
|-----4--------------|-0---------------|-------------|-----0-------------|
|--------------------|-----------------|2------------|-------------------|
|--------------------|---------2---4---|-------------|-----0-------------|
      e                e       e   q    q                  e             


 e     s s s s s s s s s s s s s s s s s s  s s s s s s s s s s s s 
|-----------------|----0---0-----------0--|-----0---0-----------0--|
|----------0-2-3--|--3---3---3---3---3---3|---2---2---2---2---2---2|
|4---4-0-2-------4|1-----------1---1------|-0-----------0---0------|
|--5--------------|-----------------------|------------------------|
|-----------------|-----------------------|-0---------------0------|
|----5------------|2---------------2------|------------------------|
   e               e               e        e               e       


 s s s   | s s s s s s s  s s e s s s s s q    e s s  
|------------------5-3-2|---0-2-3---3-2------|------------------|
|----------------0------|-2-------------5-7--|-7-7-5-8-7-5------|
|--2-4-5---5-4-2--------|---------2----------|-------------7-7-6|
|4-------0--------------|-------------------0|------------------|
|-----------------------|-0-------4----------|-------7-------0--|
|0-------4-------5------|--------------------|-5----------------|
 e       e       e                        e e  e    


 e |       |     s |      s |    s  |     s |     s s s s s  
|-----------------------|------------------------|3-2-----------3-2---0|
|2----------------------|-------0-------2-------3|----5-3-2-0----------|
|--------------0-------2|------------------------|------------2-----0--|
|0-2-0-4-0-2-0---0-2-0--|-0-2-0---0-2-0---0-2-0--|---------------------|
|-----------------------|------------------------|--------0------------|
|0-------0-------0------|-0-------0-------0------|2--------------------|
 e s s e s s s e   s s    e    s s e   s s e   s s e       e    


 s s s s s s s s s s s s s s s s s s s s s s s s  s s s s   s s s s e  e   
|5-3-5-2-5-3-5-2---5-3-2|3-2-3-0-3-2-3-0---3-2-0|-2-0-2-----2-0------|---||
|----------------0------|-----------------------|-------3-------3---2|-3-||
|-----------------------|----------------2------|---------0-------2--|-2-||
|4-------2-------0------|2-------0--------------|-0------------------|-4-||
|-----------------------|----------------0------|-----4---2-------0--|---||
|-----------------------|-----------------------|-------------5------|-0-||
 e       e       e       e       e       e        e   e   e e   e      e   

EADGBE Resources

Create Chord Sheets Guitar Tuner Songs Videos Tuning Map Create Variation
           _____
          q o o p
          q o!o p
          d o!o b
           \!!!/
           |===|
           |!!!|
           |!!!|
           |!!!|              ____    ______  ____    ____
           |!!!|             /\  _`\ /\__  _\/\  _`\ /\  _`\
           |!!!|             \ \ \L\_\/_/\ \/\ \ \/\ \ \ \L\ \
          _|!!!|__            \ \ \L_L  \ \ \ \ \ \ \ \ \  _ <'
        .+=|!!!|--.`.          \ \ \/, \ \ \ \ \ \ \_\ \ \ \L\ \
      .'   |!!!|   `.\          \ \____/  \ \_\ \ \____/\ \____/
     /     !===!     \\          \/___/    \/_/  \/___/  \/___/
     |    /|!!!|\    ||
      \   \!!!!!/   //
       )   `==='   ((
     .'    !!!!!    `..
    /      !!!!!      \\
   |       !!!!!       ||
   |       !!!!!       ||
   |       !!!!!       ||
    \     =======     //
hjw  `.    ooooo    .;'
       `-._______.-'