Artist: Nick Drake, Title: Things Behind the Sun

E

A

D

G

B

E

Nick Drake - Things Behind the Sun

Found on:
N. R. Drake, 69.(2014-09-08)
Fruit Tree(1979-03-09)
Pink Moon
Ultimate Acoustic(2004-06-21)
Heaven in a Wild Flower: An Exploration of Nick Drake(1985)
Meet on the Ledge: An Island Records Folk-Rock Anthology(2009-05-25)
Way to Blue: An Introduction to Nick Drake(2003)
The Hannibal Sampler(1992)
Tanworth-in-Arden II
THINGS BEHIND THE SUN
     
Standard Tuning, capo 4th fret
 

   
Intro:
     
|---(0)--|---(0)--|---(0)--|--------| 
|----0---|----0---|----0---|-0------| 
|----2---|----2---|----2---|---2-2--| 
|----2-22|----2-22|----2-22|--2-----| 
|0-0-----|0-0-----|0-0-----|0---0---| 
|--------|--------|--------|------0-|

(top string sounds too, albeit v quietly (thanks james marshall)
 - better to leave it out than play it too loud though imho)
     
|---(0)--|---(0)--|--------|--------|--------|--------| 
|----1---|----1---|--------|--------|--------|--------| 
|----2--2|-2--2---|----1---|----1---|----0-0-|-0---0--| 
|----2-2-|----2---|----2--2|-2--2--2|----0--0|-0-00--0| 
|0-0-----|0-0---02|----2-2-|----2-2-|----3-3-|--3---3-| 
|--------|--------|0-0-----|0-0-----|0-1-----|1-------|
     
|--------|--------|--------|--------| 
|----0---|----0---|----0---|----0---| 
|----2---|----2---|----1---|----1---| 
|----0--0|-0--0--0|----0--0|-0--0--0| 
|----2-2-|----2-2-|----2-2-|----2-2-| 
|1-0-----|0-0-----|0-0-----|0-0-----|
     
Verse: (basically a simplified version of the above)
     
|---(0)--|---(0)--|--------|--------|--------|--------|--------|--------| 
|----1---|----1---|--------|--------|---(0)--|---(0)--|----0---|----0---| 
|----2--2|----2--2|----1---|----1---|----0---|----0---|----2---|----1---| 
|----2-2-|----2-2-|----2--2|----2--2|----0--0|----0--0|----0--0|----0--0| 
|0-0-----|0-0-----|----2-2-|----2-2-|----3-3-|----3-3-|02--2-2-|----2-2-| 
|--------|--------|0-0-----|0-0-----|0-1-----|1-1-----|--0-----|0-0-----|
     
Second bit:
     
|--------|--------|--------|--------|--------|--------|--------|--------| 
|----2---|----3---|----2---|----3---|----1---|--0--1--|----1---|--0--1--| 
|----2---|----4---|----2---|----2---|----0---|--0--0--|----2---|--2--2--| 
|----2---|----2---|----2---|----4---|----2--2|--0--2--|----0--0|--0--0--| 
|0-0---00|0-0---00|0-0---00|0-0---00|------3-|----3---|------0-|--------| 
|--------|--------|--------|--------|0-3-----|3-----3-|3-2-----|2---2-2-|
     
(play above twice, then this:)
     
|--------|--------|--------|--------|--------|--------| 
|----0---|--0-----|----0---|--0-----|----0---|--0-----| 
|----0---|--0-----|----2---|--2-----|----1---|--1-----| 
|----0---|--0-----|----0---|--0-----|----0---|--0-----| 
|----3-33|--3-333-|02--2-22|--2-222-|----2-22|--2-22--| 
|0-1-----|1-------|--0-----|0-------|0-0-----|0-----0-|
     

instrumental bit:
     
     
|--------|--------|--------|--------|--------|--------|--------|--------| 
|----2---|--3-----|----2---|----3---|----1---|--0--1--|----1---|--0--1--| 
|----2---|--4-----|----2---|----2---|----0---|--0--0--|----2---|--2--2--| 
|----2---|--2-----|----2---|----4---|----2--2|--0--2--|----0--0|--0--0--| 
|0-0---00|0---000-|0-0---00|0-0---00|------3-|----3---|------0-|--------| 
|--------|--------|--------|--------|0-3-----|3-----3-|3-2-----|2---2-2-|
     
|--------|--------|--------|--------|--------|--------| 
|--------|--------|----0---|----0---|----0---|----0---| 
|----0---|-0---0--|----2---|----2---|----1---|----1---| 
|----0--0|---00--0|----0--0|-0--0--0|----0--0|-0--0--0| 
|----3-3-|--3---3-|----2-2-|----2-2-|----2-2-|----2-2-| 
|0-1-----|1-------|1-0-----|0-0-----|0-0-----|0-0-----|
     


The end of the last verse repeats its last 4 bars a bit, ending


|--------|--------|--------|
|----2---|--3-----|7-----5-|
|----2---|--4-----|7-----6-|
|----2---|--2-----|7-----7-|
|0-0---00|0---000-|0-000-0-|
|--------|--------|--------|

Tabbed by Chris Healey

EADGBE Resources

Create Chord Sheets Guitar Tuner Songs Videos Tuning Map Create Variation
           _____
          q o o p
          q o!o p
          d o!o b
           \!!!/
           |===|
           |!!!|
           |!!!|
           |!!!|              ____    ______  ____    ____
           |!!!|             /\  _`\ /\__  _\/\  _`\ /\  _`\
           |!!!|             \ \ \L\_\/_/\ \/\ \ \/\ \ \ \L\ \
          _|!!!|__            \ \ \L_L  \ \ \ \ \ \ \ \ \  _ <'
        .+=|!!!|--.`.          \ \ \/, \ \ \ \ \ \ \_\ \ \ \L\ \
      .'   |!!!|   `.\          \ \____/  \ \_\ \ \____/\ \____/
     /     !===!     \\          \/___/    \/_/  \/___/  \/___/
     |    /|!!!|\    ||
      \   \!!!!!/   //
       )   `==='   ((
     .'    !!!!!    `..
    /      !!!!!      \\
   |       !!!!!       ||
   |       !!!!!       ||
   |       !!!!!       ||
    \     =======     //
hjw  `.    ooooo    .;'
       `-._______.-'