Artist: Nirvana, Title: Come As You Are

DGCFAD Resources

Create Chord Sheets Guitar Tuner Songs Videos Tuning Map

D

G

C

F

A

D

Nirvana - Come As You Are

[Intro]
D|-----------------------------------------|
A|-----------------------------------------|
F|-----------------------------------------| x4
C|-----------------------------------------|
G|------------0---0---------2-------2------|
D|--0-0-1-2-----2---2-2-1-0---0-0-----0-1--|
 
[Verse]
D|-----------------------------------------|
A|-----------------------------------------|
F|-----------------------------------------| x8
C|-----------------------------------------|
G|------------0---0---------2-------2------|
D|--0-0-1-2-----2---2-2-1-0---0-0-----0-1--|
 
[Bridge 1]
D|---------0-----------------------------------|
A|---------0-----------------------------------|
F|--------------------2--2--2--2----2--2--2----| x4
C|--4-4-4-----4-4-4---2--2--2--2----2--2--2----|
G|--4-4-4-----4-4-4---0--0--0--0----0--0--0----|
D|--2-2-2-----2-2-2----------------------------|
 
[Verse]
D|-----------------------------------------|
A|-----------------------------------------|
F|-----------------------------------------| x4
C|-----------------------------------------|
G|------------0---0---------2-------2------|
D|--0-0-1-2-----2---2-2-1-0---0-0-----0-1--|
 
[Bridge 1]
D|---------0-----------------------------------|
A|---------0-----------------------------------|
F|--------------------2--2--2--2----2--2--2----| x4
C|--4-4-4-----4-4-4---2--2--2--2----2--2--2----|
G|--4-4-4-----4-4-4---0--0--0--0----0--0--0----|
D|--2-2-2-----2-2-2----------------------------|
 
[Bridge 2]
D|--------------------------------------|
A|-------------------3-3-3-3--3-3-3-----|
F|--4-4-4-4~-4-4-4---2-2-2-2--2-2-2-----| x4
C|--4-4-4-4~-4-4-4---0-0-0-0--0-0-0-----|
G|--2-2-2-4~-2-2-2---0-0-0-0--0-0-0-----|
D|--------------------------------------|
 
[Instrumental]
D|-----------------------------------------|
A|-----------------------------------------|
F|-----------------------------------------| x2
C|-----------------------------------------|
G|------------0---0---------2-------2------|
D|--0-0-1-2-----2---2-2-1-0---0-0-----0-1--|
 
[Solo]
D|-------------------------------------------------------|
A|-------------------------------------------------------|
F|-6~--9~-11~/6--6~--9~-11~/6--6~--9~-11-11b-11-11-9-9/6-|         x4
C|-------------------------------------------------------|
G|-------------------------------------------------------|
D|-------------------------------------------------------|
 
[Bridge 1]
D|---------0-----------------------------------|
A|---------0-----------------------------------|
F|--------------------2--2--2--2----2--2--2----| x4
C|--4-4-4-----4-4-4---2--2--2--2----2--2--2----|
G|--4-4-4-----4-4-4---0--0--0--0----0--0--0----|
D|--2-2-2-----2-2-2----------------------------|
 
[Bridge 2]
D|--------------------------------------|
A|-------------------3-3-3-3--3-3-3-----|
F|--4-4-4-4~-4-4-4---2-2-2-2--2-2-2-----|  x6
C|--4-4-4-4~-4-4-4---0-0-0-0--0-0-0-----|
G|--2-2-2-4~-2-2-2---0-0-0-0--0-0-0-----|
D|--------------------------------------|
 
[Outro]
D|-----------------------------------------|
A|-----------------------------------------|
F|-----------------------------------------| x4
C|-----------------------------------------|
G|------------0---0---------2-------2------|
D|--0-0-1-2-----2---2-2-1-0---0-0-----0-1--|
 
D|---------------|
A|---------------|
F|---------------|
C|---------------|
G|---------------|
D|-2-------------|
 
***********************************
 
| /   Slide up
| ~   Vibrato
 
***********************************