Artist: Laura Marling, Title: I Feel Your Love

DADFAD Resources

Create Chord Sheets Guitar Tuner Songs Videos Tuning Map

D

A

D

F

A

D

Laura Marling - I Feel Your Love

Intro
 
D|---------------|       |---------------|
A|-12-10-8-7-----|       |-5--3/5/3------|
F|-12-11-9-7-----| x2    |-4--2/4/2------| x2
D|---------------|       |---------------|
A|---------------|       |---------------|
D|-(0)-----------|       |-(0)-----------|
 
Verse
 
D|-----------|
A|-5--7------|
F|-4--7------| x4
D|-----------|
A|-----------|
D|-0--0------|
Keep your love around me
Keep your love around me so I can never know what's going on
 
D|--5-------|
A|--5-------|
F|--5-------|
D|--5-------|
A|--5-------|
D|--5-------|
What's going on
 
D|-----------|
A|-5--7------|
F|-4--7------| x2
D|-----------|
A|-----------|
D|-0--0------|
 
(repeat the verse)
 
Pre-chorus
 
D|--5--3-----|
A|--5--3-----|
F|--5--4-----| x3
D|--5--3-----|
A|--5--3-----|
D|--5--3-----|
You let me in, I loved you then
The first taste is free,
 
D|-----------------|
A|-----------------|
F|--5--7--9--11----| x2
D|-----------------|
A|-----------------|
D|--5--7--8--10----|
then you had me
I feel your love
 
D|---------------|
A|-12-10-8-7-----|
F|-12-11-9-7-----| x2
D|---------------|
A|---------------|
D|-(0)-----------|
 
These patterns repeat throughout the song.
Occasionally she plays the intro backwards starting from the first position of the verse.
 
 
Keep your love around me
Keep your love around me so I can never know what's going on
What's going on?
Keep your love around me
Keep your love around me so I can't be alone
An electric fence, a silent defence to you all
You let me in, I loved you then
The first taste is free, then you had me
 
I feel your love
I feel your love
 
Keep your love around me
Keep your love around me so I can get along
An electric fence, a silent defence to you all
Let the river answer
Let the river answer so I can get along
What's going on?
What's going on?
You must let me go before I get old
I need to find someone who really wants to be mine
 
I feel your love
I feel your love
 
Keep your love around me
Keep your love around me so I can never know what's going on
What's going on?
Let the river answer
Let the river answer so I can be alone
An electric fence, a silent defence to you all
You must let me go before I get old
I need to find someone who really wants to be mine
 
I feel your love
I feel your love
 
Please let me go
Please let me go