Artist: Ryley Walker, Title: I Will Ask You Twice

EADGBC Resources

Create Chord Sheets Guitar Tuner Songs Videos Tuning Map

E

A

D

G

B

C

Ryley Walker - I Will Ask You Twice

Tuning:  EADGBC
Capo: 3rd fret
 
Alternative tuning: Standard 1/2 step down (EbAbDbGbBbEb)with partial capo on 4th fret over first five strings
(i.e. partial capo 4th fret with open 1st high Eb string) however ending would need altered slightly.
 
[Intro]
C|--0-----------------------------|--0-----------------------------|
B|--0-------0---------------0-----|--0-------0---------------0-----|
G|--0---2-------0-------0h2---2h0-|--0---2-------0-------0h2---2h0-|
D|----5-------5-------0-----------|----5-------5-------0-----------| x2
A|--0-----0---------3-------------|--0-----0---------3-------------|
E|----------------3---------------|----------------3---------------|
 
[Verse]
0:14    I'm playing footsie with Jesus, oh man what a weak touch
        I don't read the bible baby, I think it says don't ask much
C|--0-----------------------------|--0-----------------------------|
B|--0-------0---------------0-----|--0-------0---------------0-----|
G|--0---2-------0-------0h2---2h0-|--0---2-------0-------0h2---2h0-|
D|----5-------5-------0-----------|----5-------5-------0-----------| x2
A|--0-----0---------3-------------|--0-----0---------3-------------|
E|----------------3---------------|----------------3---------------|
 
[Chorus]
0:27    With good posture for peace, a celebration would be nice
C|---------------------------------|---------------------------------|
B|--3-----1---0---------0----------|--0h3---1---0---------0----------|
G|------0-------0-----0-0----------|--------------0-----0-0----------|
D|----0-------------2---------0----|------0-----------2---------0----|
A|----------------3---------0---0--|----------------3---------0---0--|
E|--3-------3-------------1--------|--3-------3-------------1--------|
 
0:34    And would you marry me baby, I will ask you twice
C|---------------------------------|----------------------------0----|
B|--0h3---1---0---------0----------|------------0---------------0----|
G|--------------0-----0-0----------|--------2-----2---------2-----0--|
D|------0-----------2---------0----|------0---------0-----0---------0|
A|----------------3---------0---0--|----0---------------0-----0------|
E|--3-------3-------------1--------|--2-------2-------1--------------|
 
[Instrumental]
0:41
C|--0-----------------------------|--0-----------------------------|
B|--0-------0---------------0-----|--0-------0---------------0-----|
G|--0---2-------0-------0h2---2h0-|--0---2-------0-------0h2---2h0-|
D|----5-------5-------0-----------|----5-------5-------0-----------| x2
A|--0-----0---------3-------------|--0-----0---------3-------------|
E|----------------3---------------|----------------3---------------|
 
[Verse]
0:55    Leather boots for justice, ones that fit just right
        What size are you when wet? Do you wear those things out at night?
C|--0-----------------------------|--0-----------------------------|
B|--0-------0---------------0-----|--0-------0---------------0-----|
G|--0---2-------0-------0h2---2h0-|--0---2-------0-------0h2---2h0-|
D|----5-------5-------0-----------|----5-------5-------0-----------| x2
A|--0-----0---------3-------------|--0-----0---------3-------------|
E|----------------3---------------|----------------3---------------|
 
[Chorus]
1:08    With good posture for peace, a celebration would be nice
C|---------------------------------|---------------------------------|
B|--3-----1---0---------0----------|--0h3---1---0---------0----------|
G|------0-------0-----0-0----------|--------------0-----0-0----------|
D|----0-------------2---------0----|------0-----------2---------0----|
A|----------------3---------0---0--|----------------3---------0---0--|
E|--3-------3-------------1--------|--3-------3-------------1--------|
 
1:15    And would you marry me baby, I will ask you twice
C|---------------------------------|----------------------------0----|
B|--0h3---1---0---------0----------|------------0---------------0----|
G|--------------0-----0-0----------|--------2-----2---------2-----0--|
D|------0-----------2---------0----|------0---------0-----0---------0|
A|----------------3---------0---0--|----0---------------0-----0------|
E|--3-------3-------------1--------|--2-------2-------1--------------|
 
[Instrumental]
1:22
C|--0----------------------(0)----|--0----------------------(0)----|
B|--0-------0---------------0-----|--0-------0---------------0-----|
G|--0---2-------0-------0h2---2h0-|--0---2-------0-------0h2---2h0-|
D|----5-------5-------0-----------|----5-------5-------0-----------| x2
A|--0-----0---------3-------------|--0-----0---------3-------------|
E|----------------3---------------|----------------3---------------|
 
[Chorus]
1:35    With good posture for peace, a celebration would be nice
C|---------------------------------|---------------------------------|
B|--3-----1---0---------0----------|--0h3---1---0---------0----------|
G|------0-------0-----0-0----------|--------------0-----0-0----------|
D|----0-------------2---------0----|------0-----------2---------0----|
A|----------------3---------0---0--|----------------3---------0---0--|
E|--3-------3-------------1--------|--3-------3-------------1--------|
 
1:43    And would you marry me baby, I will ask you twice
C|---------------------------------|---------------------------------|
B|--0h3---1---0---------0----------|------------0---------------0----|
G|--------------0-----0-0----------|--------2-----2---------2-----2--|
D|------0-----------2---------0----|------0---------0-----0---------0|
A|----------------3---------0---0--|----0---------------0------------|
E|--3-------3-------------1--------|--2-------2-------1-------1------|
 
[Outro]
1:49    I will ask you twice
C|---------------------------------|--------------2p0-4--------------|
B|------------0--------------0-----|------------3--------------------|
G|--------2-----2---------2----2---|--------2/4----------------------|
D|------0---------0-----0--------0-|------0--------------------------|
A|----0---------------0------------|----0----------------------------|
E|--1-------1-------1-------1------|--1---------------0--------------|
 
************************************
| h   Hammer-on
| /   Slide up
| p   Pull-off
| ()  Ghost note
************************************